Cifra Club

Aprenda

Drift and Die

Puddle Of Mudd

Cifra: Principal (violão e guitarra)
tom: C
Tirado por Rômulo Teixeira (banda DANUTS (Sorocaba/SP)

Introdução:

e|-1--1-1-1--0--0-0-0-0--0-0|-1--1-1-1--0--0-0--0--|-1--1-1-1-1--1--1-1--1-|
B|-3--3-3-3--3--3-3-3-3--3-3|-3--3-3-3--3--3-3--3--|-3--3-3-3-3--3--3-3--3-|
G|-2--2-2-2--2--2-2-2-2--2-2|-2--2-2-2--2--2-2--2--|-0--0-0-0-0--0--0-0--0-|
D|-0--0-0-0--0--0-0-0-0--0-0|-0--0-0-0--0--0-0--0--|-x-----------x---------|
A|--------------------------|----------------------|-3-------(3)-2------(2)|
E|--------------------------|----------------------|-----------------------|

Refrão:

e|-------------------------------------|
B|-3--3-3-3--3-3-3-3-----3------3--3-3-|
G|-2--2-2-2--0-0-0-0-0-0-0--0-0-0--0-0-|
D|-0--0-0-0--2-0-0-0-0-0-0--0-0-2--2-2-|
A|-----------3-----2-----x--x-x-3--3-3-|
E|-----------------------1--1-1--------|

Final:

e|----------------------------------------|
B|----------------------------------------|
G|-7--7-7--5-7----------------------------|
D|-7--7-7--5-7----------------------------|
A|-5--5-5--3-5----------3---------3--5--3-|
E|----------------1-3h5-----1-3h5---------|
Composição de Sílvio da Silva Jr. / Wesley Scantlin
Colaboração e revisão:
  • Romulo Teixeira
17.109 exibições
    • ½ Tom
    • A
    • Bb
    • B
    • C
    • Db
    • D
    • Eb
    • E
    • F
    • F#
    • G
    • Ab
  • Adicionar à lista

    0 comentários

    Ver todos os comentários

    Conseguiu tocar?

    0 Tocaram 0 Ainda não

    Grave um vídeo tocando Drift and Die e nos envie!

    00:00 / 00:00
    outros vídeos desta música
    repetir qualidade Automático
    Outros vídeos desta música
    00:00 / 00:00
    Automático

    Cifra Club Pro

    Aproveite o Cifra Club com benefícios exclusivos e sem anúncios
    Cifra Club Pro
    Aproveite o Cifra Club com benefícios exclusivos e sem anúncios
    OK