Cifra Club

Aprenda

Perfeita

Pull Down

Cifra: Versão 2 (violão e guitarra)
tom: D
Intro:

Base: D C Bm G (x2) [dedilhada]

e|----------------------------------------------
b|----------------------------------------------
g|--9h11----9h11----9----9h11---7---7h9---7/9---     x2
d|----------------------------------------------
a|----------------------------------------------
E|----------------------------------------------

D5                   C5
ela é linda como eu sempre sonhei
B5            A5
Sabe fazer o que também sei
D5                 C5 
me faz sentir como não sentia,
B5                  A5
desde aquele tempo quando eu ainda sorria 

Riff (Durante o Pré-Refrão)

[Tocar Abafado]
e|-------------------
b|-------------------
g|-11-11--9-9--7-7-7-  Varias Vezes
d|-------------------
a|-------------------
E|-------------------

seu sorriso é um bóia no meu mar de solidão   : 
seu jeito me faz pensar com o coração         :
tenho medo de amar,                           :   Pré-Refrão
mas por ela mesmo assim vou lutar             :

D5                A5
ela vem até minha casa,
G5                A5
pra falar coisas lindas
D5             A5
como não tenho nada
G5               A5
quero ficar com essa menina 

suas palavras me fazem pensar      :  b|---Abafado--------------
quanto tempo perdi sem te procurar :  g|-[11-11..9-9..]-9h11---- 
agora que te achei nada faz mudar  :  d|------------------------
minha vontade de te amar           :      ^Varias Vezes^

D5                A5
ela vem até minha casa,
G5                A5
pra falar coisas lindas
D5             A5
como não tenho nada
G5               A5
quero ficar com essa menina 

SOLO: (D5 A5 G5 A5)   D5

e|--------------------------------------------------------------------
b|------------------------------------------------------6-8-10-10br--8
g|-7h9-7h9--7br-p0---------------------------------5h7----------------
d|------------------5h7-7-5-------------5/7--7b-5---------------------
a|--------------------------5--5----0-5-------------------------------
E|--------------------------------------------------------------------

e|----------------------------------------------
b|-10br-8-8h10p8--------------------------------
g|----------------5--7--9--7--------------------
d|---------------------------------------0/12---
a|----------------------------------------------
E|----------------------------------------------

D5            C5                    
seu sorriso é um bóia no meu mar de solidão  
B5                  A5
seu jeito me faz pensar com o coração        
D5            C5
tenho medo de amar,    
B5                 A5                       
mas por ela mesmo assim vou lutar             

D5                A5
ela vem até minha casa,        :
G5                A5           :
pra falar coisas lindas        :
D5             A5              :  x2
como não tenho nada            :
G5               A5            :
quero ficar com essa menina    :

D5     A5   G5  A5
Ahhhhh ohhhoohh com essa menina

D5     A5  G5     A5                 D5         
Ahh    ohuuoohhoohh     com essa menina
Compositor não encontrado.
Colaboração e revisão:
  • Pedro Andrade
1.599 exibições
    • ½ Tom
    • A
    • Bb
    • B
    • C
    • Db
    • D
    • Eb
    • E
    • F
    • F#
    • G
    • Ab
  • Adicionar à lista

    0 comentários

    Ver todos os comentários

    Conseguiu tocar?

    0 Tocaram 0 Ainda não

    Grave um vídeo tocando Perfeita e nos envie!

    00:00 / 00:00
    Outros vídeos desta música
    Repetir Qualidade Automático
    Outros vídeos desta música
    00:00 / 00:00
    Automático

    Cifra Club Pro

    Aproveite o Cifra Club com benefícios exclusivos e sem anúncios
    Cifra Club Pro
    Aproveite o Cifra Club com benefícios exclusivos e sem anúncios
    OK