Cifra Club

Mais de Ti

Quatro Por Um

Cifra: Principal (violão e guitarra)
tom: G
 Intro: G Em C D
E|-----------------------------------------------------------|
B|-----------------------------------------------------------|
G|--------4-5/7-----7/9-7------------4-5-4-------------------|
D|--4-5-7-------5-5-------7/5-5--5-7-------5-----------------|
A|-------------------------------------------5/7-5-----------|
E|-----------------------------------------------------------|

E|-----------------------------------------------------------|
B|-----------------------------------------------------------|
G|--------4-5/7-----7/9-7------------4-5-4---5/7-5--------5--|
D|--4-5-7-------5-5-------7/5-5--5-7-------7--------5/7-5---5|
A|-----------------------------------------------------------|
E|-----------------------------------------------------------|

    G       D/F#   Em        C        D
Ninguem me faz tão bem como Deus, meu Deus
    G       D/F#  Em      C          D
Ninguem me ama assim ,como Deus , meu Deus
     G   D/F#   Em        C         D
Precioso és pra mim , meu Deus, meu Deus
  G     D/F#  Em       C         D
Fiel tu és a mim , meu Deus, meu Deus

Refrão 2x:
    C         Em   Am7             Em
Preciso enxergar o que ja mais se viu
    C         Em   Am7            Em
Preciso escutar o que ja mais se ouviu
       C     D       G
Eu preciso mais de ti

(Solo 2)

Refrão 2x:
    C         Em   Am7             Em
Preciso enxergar o que ja mais se viu
    C         Em   Am7            Em
Preciso escutar o que ja mais se ouviu
       C     D       G
Eu preciso mais de ti
00:00 / 00:00
Outros vídeos desta música
Repetir
Outros vídeos desta música
Composição de Emerson Pinheiro / Fernanda Brum / Marcus Salles
Colaboração e revisão:
  • Rubens Filho
  • Wanderson Silva
25.278 exibições
    • ½ Tom
    • A
    • Bb
    • B
    • C
    • Db
    • D
    • Eb
    • E
    • F
    • F#
    • G
    • Ab
  • Adicionar à lista

    0 comentários

    Ver todos os comentários

    Entre para oCifra Club PRO

    Tenha acesso a benefícios exclusivos no App e no Site

    • Chega de anúncios

    • Prioridade de compra em lançamentos

    • Mais recursos no app do Afinador

    • Atendimento Prioritário

    • Descontos nos produtos Cifra Club

    • Ajude a produzir mais conteúdo

    00:00 / 00:00

    Cifra Club Pro

    Aproveite o Cifra Club com benefícios exclusivos e sem anúncios
    Cifra Club Pro
    Aproveite o Cifra Club com benefícios exclusivos e sem anúncios
    OK