Cifra Club

Aprenda

A Kind Of Magic

Queen

Tab de baixo: Principal
            (Intro)
G)----------------------------------|------------------------------------------------------------|
D)----------------------------------|------------------------------------------------------------|
A)-----3/5\3~-----5/7\5~------------|-----------------3-3------3-3-------3-3--------3-3----------|
E)---------------------------3/5\3~-|----5-5-5-5----------5-3-------5-3-------5-3---------5-3----|

G)-----------------------------------------------------------------------------------------------|
D)-----------------------------------------------------------------------------------------------|
A)---5-5------5-5------5-5-----5-5-------0-0------0-0------0-0------0-0--------------------------|
E)-------7-5------7-5------7-5-----7-5-------2-0------2-0------2-0------2-0-(Repete tudo s/ Intro|
Composição de Roger Taylor
Colaboração e revisão:
  • Marcelo Boscato
12.217 exibições

0 comentários

Ver todos os comentários
00:00 / 00:00
Outros vídeos desta música
Repetir Qualidade Automático
Outros vídeos desta música
00:00 / 00:00
Automático

Cifra Club Pro

Aproveite o Cifra Club com benefícios exclusivos e sem anúncios
Cifra Club Pro
Aproveite o Cifra Club com benefícios exclusivos e sem anúncios
OK