Cifra Club

Aprenda

Another One Bites The Dust

Queen

Tab de baixo: Principal
Introdução(1):

Parte 1(tocar 2x)

G|--------------------------------------------|
D|--------------------------------------------|
A|--------------------------------------------|
E|-5-3-0-0-0--0-0-0-3-0-5---------------------|

Parte 2(tocar 3x)

G|--------------------------------------------|
D|--------------------------------------------|
A|--------------------------------------------|
E|-0-0-0--0-0-0--3-0-5------------------------|

Primeira parte

Let´s go,steve walks warily down...

Parte 1 (toca 2x)

G|--------------------------------------------|
D|--------------------------------------------|
A|--------------------------------------------|
E|-0-0-0--0-0-0--3-0-5------------------------|

Parte 2

Are you ready, are you ready,for this...

G|--------------------------------------------|
D|-----------5--------------------------------|
A|-3-3-3-4-5-----3-3-3-4-5--------------------|
E|-------------3-----------3------------------|

Parte 3

G|--------------------------------------------|
D|-----------5--------------------------------|
A|-3-3-3-4-5----------------------------------|
E|-------------3--5-5-5-6-7--3----------------|

Primeiro Refrão

Parte 1 (tocar 3x)

Another on bites the dust...

G|--------------------------------------------|
D|--------------------------------------------|
A|--------------------------------------------|
E|-0-0-0--0-0-0--3-0-5------------------------|

Parte 2

Hey,I´m gonna get you too,another one bites the dust...

G|--------------------------------------------|
D|--------------------------------------------|
A|--------------------------------------------|
E|-2--7-6-5-5-5--2-3--------------------------|

Introdução(2)

Parte 1

G|--------------------------------------------|
D|--------------------------------------------|
A|--------------------------------------------|
E|-0-0-0--0-0-0--3-0-5------------------------|

Parte 2

G|--------------------------------------------|
D|--------------------------------------------|
A|--------------------------------------------|
E|-0-0-0--0-0-0--3-0-5--5-3-------------------|

Segunda parte

How do you think I´m going to get alone...

Parte 1 (tocar 2x)

G|--------------------------------------------|
D|--------------------------------------------|
A|--------------------------------------------|
E|-0-0-0--0-0-0--3-0-5------------------------|

Parte 2

Are you happy, are you sastisfied...

G|--------------------------------------------|
D|-----------5--------------------------------|
A|-3-3-3-4-5-----3-3-3-4-5--------------------|
E|-------------3-----------3------------------|

Parte 3

G|--------------------------------------------|
D|-----------5--------------------------------|
A|-3-3-3-4-5----------------------------------|
E|-------------3--5-5-5-6-7--3----------------|

Segundo Refrão

Parte 1 

Another on bites the dust...

G|--------------------------------------------|
D|--------------------------------------------|
A|--------------------------------------------|
E|-0-0-0--0-0-0--3-0-5------------------------|

Parte 2

G|--------------------------------------------|
D|--------------------------------------------|
A|--------------------------------------------|
E|-0-0-0--0-0-0--3-0-5--5-3-------------------|

Parte 3

G|--------------------------------------------|
D|--------------------------------------------|
A|--------------------------------------------|
E|-0-0-0--0-0-0--3-0-5------------------------|

Parte 4

Hey,I´m gonna get you too,another one bites the dust...

G|--------------------------------------------|
D|--------------------------------------------|
A|--------------------------------------------|
E|-2--7-6-5-5-5--2-3-0------------------------|

Terceira parte

Só batera,efeitos e voz.

Introdução(3)

Parte 1

G|--------------------------------------------|
D|--------------------------------------------|
A|--------------------------------------------|
E|-5-3-0-0-0--0-0-0-3-0-5---------------------|

Parte 2 

G|--------------------------------------------|
D|--------------------------------------------|
A|--------------------------------------------|
E|-0-0-0--0-0-0--3-0-5------------------------|

Quarta parte

You can hurt a man,and bring him to the ground...

Parte 1

G|--------------------------------------------|
D|--------------------------------------------|
A|--------------------------------------------|
E|-0-0-0--0-0-0--3-0-5--5-3-------------------|

Parte 2

G|--------------------------------------------|
D|--------------------------------------------|
A|--------------------------------------------|
E|-0-0-0--0-0-0--3-0-5------------------------|

Parte 3

But I´m ready,yes I´m ready for you...

G|--------------------------------------------|
D|-----------5--------------------------------|
A|-3-3-3-4-5-----3-3-3-4-5--------------------|
E|-------------3-----------3------------------|

Parte 4

G|--------------------------------------------|
D|-----------5--------------------------------|
A|-3-3-3-4-5----------------------------------|
E|-------------3--5-5-5-6-7--3----------------|

Terceiro Refrão

Parte 1 

Another on bites the dust...

G|--------------------------------------------|
D|--------------------------------------------|
A|--------------------------------------------|
E|-0-0-0--0-0-0--3-0-5------------------------|

Parte 2

G|--------------------------------------------|
D|--------------------------------------------|
A|--------------------------------------------|
E|-0-0-0--0-0-0--3-0-5--5-3-------------------|

Parte 3

G|--------------------------------------------|
D|--------------------------------------------|
A|--------------------------------------------|
E|-0-0-0--0-0-0--3-0-5------------------------|

Parte 4

Hey,I´m gonna get you too,another one bites the dust...

G|--------------------------------------------|
D|--------------------------------------------|
A|--------------------------------------------|
E|-2--7-6-5-5-5--2-3--------------------------|

Introdução Final

Parte 1

G|--------------------------------------------|
D|--------------------------------------------|
A|--------------------------------------------|
E|-0-0-0--0-0-0--3-0-5--5-3-------------------|

Parte 2

G|--------------------------------------------|
D|--------------------------------------------|
A|--------------------------------------------|
E|-0-0-0--0-0-0--3-0-5------------------------|

Parte 3

G|--------------------------------------------|
D|-----------5--------------------------------|
A|-3-3-3-4-5-----3-3-3-4-5--------------------|
E|-------------3-----------3------------------|

Parte 4

G|--------------------------------------------|
D|-----------5--------------------------------|
A|-3-3-3-4-5----------------------------------|
E|-------------3--5-5-5-6-7-------------------|
Composição de John Deacon
Colaboração e revisão:
  • Reginaldo Costa
  • Roberto .
  • Igor Zaidan
81.596 exibições

0 comentários

Ver todos os comentários

Conseguiu tocar?

42 Tocaram 2 Ainda não

Grave um vídeo tocando Another One Bites The Dust e nos envie!

00:00 / 00:00
Outros vídeos desta música
Repetir Qualidade Automático
Outros vídeos desta música
00:00 / 00:00
Automático
Capítulos
  • Início
  • Tocando a Música
  • Tocando Introdução
  • Ensinando Introdução
  • Tocando Primeira Parte
  • Ensinando Primeira Parte
  • Tocando o Refrão
  • Ensinando o Refrão
  • Tocando Segunda Parte
  • Ensinando Segunda Parte
  • Tocando Segundo Refrão
  • Ensinando Segundo Refrão
  • Tocando Introdução 3
  • Ensinando Introdução 3
  • Tocando Quarta Parte
  • Ensinando Quarta Parte
  • Tocando Terceiro Refrão
  • Ensinando Terceiro Refrão
  • Tocando Final
  • Ensinando Final
  • Encerramento

Cifra Club Pro

Aproveite o Cifra Club com benefícios exclusivos e sem anúncios
Cifra Club Pro
Aproveite o Cifra Club com benefícios exclusivos e sem anúncios
OK