Cifra Club

I Want To Break Free

Queen

Cifra: Mixada (violão e guitarra)
tom: E
                     E
    I want to break free, I want to break free,
    I want to break free from your lies, you're so self satisfied,
              A                           E
    I don't need you. I've got to break free.
          B     A                          E
    God knows, God knows I want to break free.

                    E
    I've fallen in love, I've fallen in love for the first time,
                                    A                   E
    and this time I know it's for real, I've fallen in love, yeah.
          B     A                        E
    God knows, God knows I've fallen in love.

            B               A
    It's strange but it's true,
   B                               A
    I can't get over the way you love me like you do,
         C#m                       F#4         F#
    but I have to be sure, when I walk out that door.
    A         B           C#m        B   A         B           C#m
    Oh, how I want to be free, baby,      oh how I want to be free,
B    A         B              E
    oh, how I want to break free.


  (base)  E A Em
E|----------------------|-------------------------------------------------|
B|----------------------|-------------------------------------------------|
G|----------11--13--13b-|----------11--13--13b----------13b---------------|
D|------14--------------|------14---------------14-----------14-----------|
A|--14------------------|--14-----------------------14-----------14-12-11-|
E|----------------------|-------------------------------------------------|

E|----------------------------------|
B|--14b-----------------------------|
G|-------14-------------------------|
D|-----------14--12-11--------------|
A|----------------------12----------|
E|--------------------------12------|

E|------------------------------------------|
B|--14b(14)(14)-----------------------------|
G|--------------14-----13-------------------|
D|-----------------14------14---------------|
A|-----------------------------14--12--11---|
E|------------------------------------------|

(base) Bm A E A

E|----------|
B|--7b(7)---|
G|----------|  (4 segundos)
D|----------|
A|----------|
E|----------|

E|---------------------------------|----------------------------------------|
B|--9b(9)------9-------9-----------|----------------------------------------|
G|---------9-------9-------9-------|----------------------------------------|
D|-----------9-------9-------9-6-6-|--7---6-----------5b(5)--2-0------------|
A|---------------------------------|--------7--------------------2-0--------|
E|---------------------------------|----------7-5-4------------------3-0h---|

                        E
    But life still goes on,
    I can't get used to, living without, living without, living without you
           A                           E
    by my side, I don't want to live alone, hey.
          B     A                         E
    God knows,      got to make it on my own.
                       B   A                       E
    So baby can't you see,     I've got to break free.
    I've got to break free, I want to break free, yeah,
    I want, I want, I want, I want to break free....
Composição de John Deacon
Colaboração e revisão:
  • carlos santos
7.084 exibições
    • ½ Tom
    • A
    • Bb
    • B
    • C
    • Db
    • D
    • Eb
    • E
    • F
    • F#
    • G
    • Ab
  • Adicionar à lista

    0 comentários

    Ver todos os comentários
    00:00 / 00:00
    Outros vídeos desta música
    Repetir Qualidade Automático
    Outros vídeos desta música
    00:00 / 00:00
    Automático

    Cifra Club Pro

    Aproveite o Cifra Club com benefícios exclusivos e sem anúncios
    Cifra Club Pro
    Aproveite o Cifra Club com benefícios exclusivos e sem anúncios
    OK