Cifra Club

Aprenda

Bad Case Of Loving You

Robert Palmer

Tab de baixo: Principal
Tabber: Steph
email: *


Intro:

  
  E
G|--------------------------------|--------------------------------|
D|--------------------------------|--------------------------------|
A|--------------------------------|--------------------------------|
E|0-------0---0---0---0---0---0---|0---0---0---0---0---0---0---0---|

G|--------------------------------|--------------------------------|
D|--------------------------------|----------------5---------------|
A|--------------------------------|--------5---7-------7---5-------|
E|0---0---0---0---0---0---0---0-5h|7---7-----------------------3---|


Verse:
    E              X4   A              B                  E              X2
G|--------------------|--------------------------------|------------------|
D|*------------------*|--------------------------------|*----------------*|
A|*------------------*|--------------------------------|*----------------*|
E|--0-0-0-0-0-0-0-0---|-5-5-5-5-5-5-5-5-7-7-7-7-7-7-7-7|--0-0-0-0-0-0-0-0-|

Chorus:

Doctor doctor....
           E    A                             E               B   
G|---|---|--------------------------------------------------------------------|
D|---|---|--------------------------------------------------------------------|
A|---|---|------------------------------------7-7-7-7-7-7-7-7-----------------|
E|-0-|-0-|-0000-5-5-5-5-5-5-5-5-5-5-5-5-5-5-5-----------------7-7-7-7-7-7-7-7-|


Solo:
   A                              A# B                          A#     
G|-------------------------------------------------------------------|
D|-------------------------------------------------------------------|
A|-------------------------------------------------------------------|
E|-5-5-5-5-5-5-5-5-5-5-5-5-5-5-5-6-6-7-7-7-7-7-7-7-7-7-7-7-7-7-7-6-6-|

   A                              E                              A
G|-------------------------------------------------------------------------------|
D|-------------------------------------------------------------------------------|
A|--------------------------------7-7-7-7-7-7-7-7-7-7-7-7-7-7-7-7----------------|
E|-5-5-5-5-5-5-5-5-5-5-5-5-5-5-5-5-------------------------------5-5-5-5-5-5-5-5-|

    C#              B                               B
G|---------------------------------------------------------------------------|
D|---------------------------------------------------------------------------|
A|---------------------------------------------------------------------------|
E|--9-9-9-9-9-9-9-9-7-7-7-7-7-7-7-7-7-7-7-7-7-7-7-7-/19-19-19-19-19-19-19-19-|

   E              X3
G|------------------|
D|*----------------*|
A|*----------------*|
E|-0-0-0-0-0-0-0-0--|


Try this! any comments or suggestion email me at *
EnJoY!
Keep it simple ;)
cyberbassist



656 exibições

0 comentários

Mostrar mais comentários

Conseguiu tocar?

0 Tocaram 0 Ainda não

Grave um vídeo tocando Bad Case Of Loving You e mande pra gente!

00:00 / 00:00
outros vídeos desta música
repetir qualidade Automático
Outros vídeos desta música
00:00 / 00:00
Automático
OK