Cifra Club

Como han pasado los años

Rocío Durcal

Cifra: Principal (violão e guitarra)
tom: C
Esta es la primera estrofa de la cancion

E|------------------------------------------------|
B|--------------------------------1-1--0-1-1-0-1-1|
G|-0-0---0--------------------0-------2-------2---|
D|2-4-4-2--0-4-2-4-2-0-4-0-2-4-4-2----------------
A|--------3-------------2-------------------------|
E|------------------------------------------------|

E|----------|
B|-0-1-1-0-0|
G|2-------2-
D|----------|
A|----------|
E|----------|


Esta es la segunda estrofa.

E|------------------------------------------------|
B|--------------------------------1-1--0-1-1-0-1-1|
G|-0-0---0--------------------0-------2-------2---|
D|2-4-4-2--0-4-2-4-2-0-4-0-2-4-4-2----------------
A|--------3-------------2-------------------------|
E|------------------------------------------------|

E|-----------|
B|-----------|
G|--0-2-2-0-0|
D|4--------4-
A|-----------|
E|-----------|


Esta es la tercera estrofa.

E|-------------------------------------------|
B|---------------------------------------0---|
G|2-0-2-0-2-0-2-2-2-0-2-0-2-0-2-0-----0-2----
D|-------------------------------0-2-3----2-0|
A|-------------------------------------------|
E|-------------------------------------------|

E|--------------------------|
B|0-0-0-0-0-0-0-0-----------
G|---2-2-2-2-2-2-2-----0-0-2|
D|----------------2-2-4-4---|
A|-2------------------------|
E|--------------------------|


Esta es la cuarta estrofa.

E|--------------------------------------|
B|---------------------0-0-0-0-0-1-3-3-1|
G|-0-0---0--2-0-2-0-2-2-----------------|
D|2-4-4-2--0----------------------------
A|--------3-----------------------------|
E|--------------------------------------|

E|--------------|
B|-------1-0-1-0|
G|2-2-2-2-------
D|--------------|
A|--------------|
E|--------------|


Y por ultimo, la quinta estrofa.


E|----------------------------------------|
B|0-0-0-------------------------------0---
G|---2------------2-2-2-0-0------------2-0|
D|-----4-2-2-0-0-0---------4-2-4-2-4-4----|
A|----------------------------------------|
E|----------------------------------------|
00:00 / 00:00
Outros vídeos desta música
Repetir
Outros vídeos desta música
Composição de Rafael Ferro / Roberto Livi
478 exibições
    • ½ Tom
    • A
    • Bb
    • B
    • C
    • Db
    • D
    • Eb
    • E
    • F
    • F#
    • G
    • Ab
  • Adicionar à lista

    0 comentários

    Ver todos os comentários

    Conseguiu tocar?

    0 Tocaram 0 Ainda não

    Grave um vídeo tocando Como han pasado los años e nos envie!

    Toque também

    1. Imagem do artista Juan Gabriel Así Fué Juan Gabriel
    2. Imagem do artista Ana Bárbara Lo Busque Ana Bárbara
    3. Imagem do artista Marisela Tu dama de hierro Marisela
    4. Imagem do artista Lupita D'Alessio Acaríciame Lupita D'Alessio

    Entre para oCifra Club PRO

    Tenha acesso a benefícios exclusivos no App e no Site

    • Chega de anúncios

    • Prioridade de compra em lançamentos

    • Mais recursos no app do Afinador

    • Atendimento Prioritário

    • Descontos nos produtos Cifra Club

    • Ajude a produzir mais conteúdo

    00:00 / 00:00

    Cifra Club Pro

    Aproveite o Cifra Club com benefícios exclusivos e sem anúncios
    Cifra Club Pro
    Aproveite o Cifra Club com benefícios exclusivos e sem anúncios
    OK