Cifra Club

Flojos de Pantalón

Rosendo

Cifra: Principal (violão e guitarra)
tom: C#m
E|-----------------------------------------------------------------------------------|
B|-----------------------------------------------------------------------------------|
G|-----------------------------------------------------------------------------------|
D|-----------------------------------------------------------------------------------|
A|-7---7-7-7-6-7-6-4-2~7---7-7-7-6-7-6-4-2---6---6---4---7~(2)---2-2-2---------------|
E|-0---0-0-0-0-0-0-0-0-0---0-0-0-0-0-0-0-0---7-9-----5-7----0----0-0-0---3^2^0-------|

E|-----------------------------------------------------------------------------------|
B|-----------------------------------------------------------------------------------|
G|-----------------------------------------------------------------------------------|
D|-----------------------------------------------------------------------------------|
A|-6---6---4---7~(2)---2-2-2---------------------------------------------------------|
E|-7-9-----5-7----0----0-0-0---3^2^0-------------------------------------------------|

E5           B5          C#5   A5           C#5
Surje la escena en un salón,  niñas en promoción,
A5               C#5        B5
momias poniendo precio, ambigüedad.
      E5      B5            C#5
Alguien va presumiendo discreción,
A5            C#5    A5          C#5     B5
Flojos de pantalón, líderes del diseño novedad.


//ESTRIBILLO\

       A5        B5            C#5
Son la musa que inspira la ambición
A5           C#5    E5 D#5 E5 B5
Sueño de libertad,
A5         B5       C#5
noches al pie del cañón,
A5               C#5    E5 D#5 E5 B5
fuerza de voluntad.


//INTRO\  (2 Veces)

E5       B5         C#5   A5           C#5
Es una tribu de ficción, síndrome de bufón
A5         C#5           B5
héroes de novelista berbiquí.
       E5      B5         C#5   A5            C#5
Provocando desprecio y reacción, lucen su condición
A5           C#5          B5
dueños del desparpajo, frenesí.


//ESTRIBILLO\


E5*                                          G#5

E5*                                G#5           E5*                         G#5
Y tu mientras... asumiendo....  rebuscando....  renegando de tu tiempo


//G  O\ Acordes del estribillo.

x^x^x = link
x^(x) = bending
x~(x) = slide

            no he prestado mucha atencion al tiempo por no calentarme la
            cabeza... escucha la cancion e intenta tocar estas notas lo
            mas rapido k puedas siguiendo el ritmo k marca Rosendo :P


E|--------------------------------------------------------------------------------------------|
B|----5---4-5-7-----------------------------------7^(9)---7----7^(9)---7----7-----------------|
G|--------------4-4------------------------------------------9------------9-------------------|
D|------------------7-6-------6-6^7^6---6-6^7-6-----------------------------------------------|
A|------------------------7-9---------9-------------------------------------------------------|
E|--------------------------------------------------------------------------------------------|

E|-----------------------------12-11-12-11-12-11-9---11-12-14-14^(16)-14-12-14^(16)-14-12-14-|
B|-------7-------------7-7^9------------------------------------------------------------------|
G|---6-8---9-9-8-9-8-9------------------------------------------------------------------------|
D|-9------------------------------------------------------------------------------------------|
A|--------------------------------------------------------------------------------------------|
E|--------------------------------------------------------------------------------------------|

E|-12-11-12-11-9-12-11-11^12^11^9-------------------------------------------------------------|
B|--------------------------------12-9-----7-9-9^10^9^7-9^10^9^7-9^10^9^7-9-------------------|
G|---------------------------------------9----------------------------------------------------|
D|--------------------------------------------------------------------------------------------|
A|--------------------------------------------------------------------------------------------|
E|--------------------------------------------------------------------------------------------|

E|--------------------------------------------------------------------------------------------|
B|-----7-9-9^10^9^7-9^10^9^7------------------------------------------------------------------|
G|---9-----------------------9-8~(0)----------------------------------------------------------|
D|--------------------------------------------------------------------------------------------|
A|--------------------------------------------------------------------------------------------|
E|--------------------------------------------------------------------------------------------|

            y aki es cuando al abuelo se le va la perola con las escalas

E|--------------------------------------------------------------------------------------------|
B|--------------------------------------------------------------------------------------------|
G|---------------------9-8-11-9-8-------------------------------------------------------------|
D|-----------9----11-9------------11-9----9-11-9----9-----------------------------------------|
A|---9-12-11---12----------------------12--------12---12-11-12-11------11----9----------------|
6|12----------------------------------------------------------------12----12---11-12-9-11-7-9-|

            He transcrito el 90% del solo, no me tokes las pelotas, te
            aprendes la escala e improvisas, k no me apetece seguir
            poniendo numeritos...
00:00 / 00:00
Outros vídeos desta música
Repetir
Outros vídeos desta música
Composição de Rosendo Mercado
2.087 exibições
    • ½ Tom
    • Am
    • Bbm
    • Bm
    • Cm
    • C#m
    • Dm
    • Ebm
    • Em
    • Fm
    • F#m
    • Gm
    • G#m
  • Adicionar à lista

    0 comentários

    Ver todos os comentários

    Entre para oCifra Club PRO

    Tenha acesso a benefícios exclusivos no App e no Site

    • Chega de anúncios

    • Prioridade de compra em lançamentos

    • Mais recursos no app do Afinador

    • Atendimento Prioritário

    • Descontos nos produtos Cifra Club

    • Ajude a produzir mais conteúdo

    00:00 / 00:00

    Cifra Club Pro

    Aproveite o Cifra Club com benefícios exclusivos e sem anúncios
    Cifra Club Pro
    Aproveite o Cifra Club com benefícios exclusivos e sem anúncios
    OK