Cifra Club

Na Zona Sul

Sabotage

Tab de baixo: Principal
exibições 9.385
(verso)
G||----------||----------||
D||----------||----------||
A||----------||5-7-------||
E||5-7-------||----------||

(verso com inst/ sopro)
G||----------||------------||
D||----------||------------||
A||7---------||5-7--505-8-5||
E||--5-7-----||------------||
Composição: Sabotage Colaboração e revisão:
  • felipe augusto

0 comentários

mostrar mais comentários

Conseguiu tocar?

0 tocaram 2 ainda não

Grave um vídeo tocando Na Zona Sul e mande pra gente!

00:00 / 00:00
outros vídeos desta música
repetir qualidade Automático
Outro vídeos desta música
00:00 / 00:00
Automático
OK