Cifra Club

Pra Me Refazer (part. Anavitória)

Sandy

Cifra: Principal (violão e guitarra)
Tom: C
[Intro]

C  Am7  Em  F7M(9)

[TAB - dedilhado Intro]

Parte 1 de 2
   C               Am7
E|-0--0---0---0----0--0---0---0-------------|
B|-1--1---1---1----1--1---1---1-------------|
G|-0--0---0---0----0--0---0---0-------------|
D|------------------------------------------|
A|-3----3---3---3--0----0---0---0-----------|
E|------------------------------------------|

Parte 2 de 2
   Em              F7M(9)
E|-0--0---0---0----0--0---------------------|
B|-0--0---0---0----1--1---3-----------------|
G|-0--0---0---0----0--0---0-----------------|
D|-2----2---2---2--3----3-------------------|
A|------------------------------------------|
E|------------------------------------------|

[Primeira parte]

 C
Sabe, amor
                            Am7
Eu fui, sem canto, pra tua direção
                         Em
Tava sem voz, sem rumo, só coração
                            F7M(9)
Nem sei onde é que a gente se perdeu

Ou se escondeu do nosso bem

C 
  Sabe bem
                            Am7
Falar pro amor de agora que acabou
                          Em
Que foi o tempo e que a lua virou
                          F7M(9)
Me dói de um tanto sem tamanho

[TAB - Dedilhado Primeira parte]

Parte 1 de 2
   C               Am7
E|-0--0---0---0----0--0---0---0-------------|
B|-1--1---1---1----1--1---1---1-------------|
G|-0--0---0---0----0--0---0---0-------------|
D|------------------------------------------|
A|-3----3---3---3--0----0---0---0-----------|
E|------------------------------------------|

Parte 2 de 2
   Em              F7M(9)
E|-0--0---0---0----0--0---------------------|
B|-0--0---0---0----1--1---3---3-------------|
G|-0--0---0---0----0--0---0---0-------------|
D|-2----2---2---2--3----3---3---3-----------|
A|------------------------------------------|
E|------------------------------------------| 

[Pré-refrão]

                    Dm
O vazio é difícil acostumar
                                     G7/B
Ainda bem que não hesitei em te abraçar
                                  Am7
O nó afrouxa até a mão querer soltar
                                      C
Mas da tua mão eu não larguei até voltar
                          Dm    G7 
Pra direção da tua calma, ah-ah-ah

[TAB dedilhado - Pré-refrão]

Parte 1 de 3
   Dm              G7/B
E|-1--1---1---1----1--1---1---1-------------|
B|-3--3---3---3----3--3---3---3-------------|
G|-2--2---2---2----0--0---0---0-------------|
D|-0----0---0---0---------------------------|
A|-----------------2----2---2---2-----------|
E|------------------------------------------|

Parte 2 de 3
   Am7             C
E|-0--0---0---0----0--0---0---0-------------|
B|-1--1---1---1----1--1---1---1-------------|
G|-0--0---0---0----0--0---0---0-------------|
D|------------------------------------------|
A|-0----0---0---2--3----3---3---3-----------|
E|------------------------------------------|

Parte 3 de 3
   Dm              G7
E|-1--1---1---1----1--1---1---1-------------|
B|-3--3---3---3----3--3---3---3-------------|
G|-2--2---2---2----0--0---0---0-------------|
D|-0----0---0---0---------------------------|
A|------------------------------------------|
E|-----------------3----3---3---3-----------|

[Refrão]

    F7M(9)/C
Me diz o que é que eu faço
            C
Dessa vida sem você
                             Dm
Quem é que vai me levantar agora
                                 Am7
Eu já não tenho hora pra me refazer
          F7M(9)/C
Então me diz o que é que eu faço
            C
Dessa vida sem você
                             Dm
Quem é que vai me levantar agora
                                 G
Eu já não tenho hora pra me refazer

[Primeira parte]

 C
Sabe, amor
                            Am7
Eu fui, sem canto, pra tua direção
                         Em
Tava sem voz, sem rumo, só coração
                            F7M(9)
Nem sei onde é que a gente se perdeu

[Pré-refrão]

                    Dm
O vazio é difícil acostumar
                                     G7/B
Ainda bem que não hesitei em te abraçar
                                  Am7
O nó afrouxa até a mão querer soltar
                                      C
Mas da tua mão eu não larguei até voltar
                          Dm    G7 
Pra direção da tua calma, ah-ah-ah

[Refrão]

    F7M(9)/C
Me diz o que é que eu faço
            C
Dessa vida sem você
                             Dm
Quem é que vai me levantar agora
                                 Am7
Eu já não tenho hora pra me refazer
          F7M(9)/C
Então me diz o que é que eu faço
            C
Dessa vida sem você
                             Dm
Quem é que vai me levantar agora
                                 G
Eu já não tenho hora pra me refazer

[Segunda parte]

       Am          Am7M      Am7
Então volta, me retoma, desafoga
      Am7M
Vem realinhar
        Am            Am7M
Me estremece, me percebe
             Am7   
Eu vou ser breve
        D          F  C/E  Dm  G7   
pra gente não esfriar

[TAB - dedilhado Segunda parte]

Parte 1 de 3
   Am      Am7M    Am7     Am7M  
E|------------------------------------------|
B|-5---5---5---5---5---5---5---5------------|
G|-5---5---5---5---5---5---5---5------------|
D|-7-7---7---6---6---5---5---6---6----------|
A|-0----------------------------------------|
E|------------------------------------------|

Parte 2 de 3
   Am      Am7M    Am7      D  F     C/E
E|-----------------------------1-1---0-0----|
B|-5---5---5---5---5---5----3--1-1---1-1----|
G|-5---5---5---5---5---5----2--2-2---0-0----|
D|-7-7---7---6---6---5---5--4---------------|
A|-0------------------------5---------------|
E|-----------------------------1---1-0---0--|

Parte 3 de 3
   Dm              G7
E|-1--1---1---1----1--1---1---1-------------|
B|-3--3---3---3----3--3---3---3-------------|
G|-2--2---2---2----0--0---0---0-------------|
D|-0----0---0---0---------------------------|
A|------------------------------------------|
E|-----------------3----3---3---3-----------|

[Refrão final]

    F7M(9)/C
Me diz o que é que eu faço
            C
Dessa vida sem você
                             Dm
Quem é que vai me levantar agora
                                 Am7
Eu já não tenho hora pra me refazer
          F7M(9)/C
Então me diz o que é que eu faço
            C
Dessa vida sem você
                             Dm
Quem é que vai me levantar agora
                   Fm              C
Vê se não perde a hora pra me refazer
exibições 10.596
Acordes para:

    0 comentários

    mostrar mais comentários

    Conseguiu tocar?

    9 tocaram 0 ainda não

    Grave um vídeo tocando Pra Me Refazer (part. Anavitória) e mande pra gente!

    00:00 / 00:00
    outros vídeos desta música
    repetir qualidade Automático
    Outros vídeos desta música
    00:00 / 00:00
    Automático
    Capítulos
    • Tocando a Música
    • Apresentação / Equipamentos
    • Acordes Introdução
    • Tocando Introdução
    • Ensinando Introdução
    • Ensinando Introdução - Parte 1 de 2
    • Ensinando Introdução - Parte 2 de 2
    • Dicas Primeira Parte
    • Tocando Primeira Parte
    • Ensinando Primeira Parte
    • Dicas Pré-Refrão
    • Acordes Pré-Refrão
    • Tocando Pré-Refrão
    • Ensinando Pré-Refrão - Parte 1 de 3
    • Ensinando Pré-Refrão - Parte 2 de 3
    • Ensinando Pré-Refrão - Parte 3 de 3
    • Acordes Refrão
    • Tocando Refrão
    • Ritmo Refrão
    • Dicas Segunda Parte
    • Acordes Segunda Parte
    • Tocando Segunda Parte
    • Ensinando Segunda Parte
    • Ensinando Segunda Parte - Parte 1 de 3
    • Ensinando Segunda Parte - Parte 2 de 3
    • Ensinando Segunda Parte - Parte 3 de 3
    • Acordes Refrão Final
    • Dicas Refrão Final
    • Tocando Refrão Final
    • Encerramento
    OK