Cifra Club

Aprenda

The Game Of Love

Santana

Cifra: Principal (violão e guitarra)
tom: D
Introdução: Em7  D7M  Em7  D7M  Em7  D7M  G5  A4(7/9)

E|----------------------------10--10--10--10--10/12---|
B|------------10\7-----10-12--------------------------|
G|-9h11~--p9------------------------------------------|
D|----------------------------------------------------|
A|----------------------------------------------------|
E|----------------------------------------------------|

E|----------------------------------------7-----------|
B|-10h12--10h12--10h12~-----------------x---10~-p7h10~|
G|--------------------------9/11\9h11~----------------|
D|-----------------------12---------------------------|
A|----------------------------------------------------|
E|----------------------------------------------------|

E|-------10-10-10--10--10--12--14p12b14---------------|
B|-10/12----------------------------------------------|
G|----------------------------------------------------|
D|----------------------------------------------------|
A|----------------------------------------------------|
E|----------------------------------------------------|

E|-12b14r12p10-12-10--10~h12--------------------------|
B|----------------------------------------------------|
G|----------------------------------------------------|
D|----------------------------------------------------|
A|----------------------------------------------------|
E|----------------------------------------------------|

Primeira Parte:

(Frase 1)
E|----------------------------------------------------|
B|-10/12\10-------------------------------------------|
G|-9-/11\9---9h11--7--7~------------------------------|
D|----------------------------------------------------|
A|----------------------------------------------------|
E|----------------------------------------------------|

(Frase 2)
E|----------------------------------------------------|
B|----------------------------------------------------|
G|-----7--9--11--9--7--9/11p9h11~---------------------|
D|-/9-------------------------------------------------|
A|----------------------------------------------------|
E|----------------------------------------------------|

(Frase 3)
E|----------------------------------------------------|
B|----------------------------------------------------|
G|---------7/9----------------------------------------|
D|-----7-9--------------------------------------------|
A|-7h9------------------------------------------------|
E|----------------------------------------------------|

(Frase 4)
E|----------------------------------------------------|
B|-7-10-----------------------------------------------|
G|-7----9b11-9--9-7-7-7-------------------------------|
D|----------------------------------------------------|
A|----------------------------------------------------|
E|----------------------------------------------------|

 Em7    D7M
Tell me
               Em7        D7M
Just what you want me to be
Em7      D7M
One kiss
                    Em7           D7M
And boom you're the only one for me

                    Em7  D7M
So please tell me why
                 G5           A4(7/9)
Don't you come around no more
                      Em7  D/F#  (frase 3)
Cause right now I'm crying
    G5                       A4(7/9)
Outside the door of your candy store

Primeiro Refrão:

E|----------------------------------------------------|
B|----------------------------------------------------|
G|-------7~-------------------------------------------|
D|-7--9-----------------------------------------------|
A|----------------------------------------------------|
E|----------------------------------------------------|

E|----------------------------------------------------|
B|----------------------------------------------------|
G|-9b11-9-7~h9----------------------------------------|
D|----------------------------------------------------|
A|----------------------------------------------------|
E|----------------------------------------------------|

E|-7----7---------------------------------------------|
B|---10-----------------------------------------------|
G|--------9b11r--9p7-9-11p9---7/9---------------------|
D|--------------------------9-------------------------|
A|----------------------------------------------------|
E|----------------------------------------------------|

E|----------------------------------------------------|
B|-----7----------------------------------------------|
G|---------9p7-7~-------------------------------------|
D|-7h9---9--------------------------------------------|
A|----------------------------------------------------|
E|----------------------------------------------------|

E|----------------------------------------------------|
B|-------------------7-7-8--10b12-b12r10-10-10-10b12--|
G|-----7-9p7---7h9-9----------------------------------|
D|-7h9-------9----------------------------------------|
A|----------------------------------------------------|
E|----------------------------------------------------|

It just takes
   Em7
A little bit of this
   D7M
A little bit of that
     Em7
It started with a kiss
     D7M
Now we're up to bat
   Em7
A little bit of laughs
   D7M
A little bit of pain
     G5
I'm telling you, my babe
     A4(7/9)             Em7
It's all in the game of love

Segunda Parte:

(Frase 5)
E|----------------------------------------------------|
B|----------------------------------------------------|
G|-9b11-9-7---9-7-7~-h9-------------------------------|
D|----------9-----------------------------------------|
A|----------------------------------------------------|
E|----------------------------------------------------|

(Frase 6)
E|----------------------------------------------------|
B|----------------------------------------------------|
G|-----7~---------------------------------------------|
D|--------9p7-----------------------------------------|
A|-7h9--------9p7-------------------------------------|
E|----------------------------------------------------|

(Frase 7)
E|----------------------------------------------------|
B|-10/12\10/12--12--10h12~----------------------------|
G|-9-/11\9-/11----------------------------------------|
D|----------------------------------------------------|
A|----------------------------------------------------|
E|----------------------------------------------------|

(Frase 8)
E|----------------------------------------------------|
B|----------------------------------------------------|
G|-9h11--9h11--9--7--9~\------------------------------|
D|----------------------------------------------------|
A|----------------------------------------------------|
E|----------------------------------------------------|

(Frase 9)
E|-------------9-10~-12-------------------------------|
B|-----------------------10h12-10~--------------------|
G|-----7/---------------------------------------------|
D|-7h9------------------------------------------------|
A|----------------------------------------------------|
E|----------------------------------------------------|

(Frase 10)
E|----------------------------------------------------|
B|----------------------------------------------------|
G|-9b11-9-7h9~-p7-------------------------------------|
D|----------------9-----------------------------------|
A|----------------------------------------------------|
E|----------------------------------------------------|

(Frase 11)
E|----------------------------------------------------|
B|-10p7---7-------------------------------------------|
G|------9----9b11--9-7-9-7~--7/-----------------------|
D|----------------------------------------------------|
A|----------------------------------------------------|
E|----------------------------------------------------|

     D7M               Em7          D7M
This     whatever you make it to be
 Em      D7M
Sunshine
             Em7         D7M
Set on this cold lonely sea

                 Em7  D7M
So please baby try
                 G5              A4(7/9)
And use me for what I'm good for
                     Em7  D/F#
It ain't sayin' goodbye
                     G5                   A4(7/9)
That's knocking down    the door of your candy store

Segundo Refrão:

E|----------------------------------------------------|
B|----------------------------------------------------|
G|-------7~-------------------------------------------|
D|-7--9-----------------------------------------------|
A|----------------------------------------------------|
E|----------------------------------------------------|

E|----------------------------------------------------|
B|----------------------------------------------------|
G|-9b11-9-7~h9----------------------------------------|
D|----------------------------------------------------|
A|----------------------------------------------------|
E|----------------------------------------------------|

E|-7----7---------------------------------------------|
B|---10-----------------------------------------------|
G|--------9b11r--9p7-9-11p9---7/9---------------------|
D|--------------------------9-------------------------|
A|----------------------------------------------------|
E|----------------------------------------------------|

E|----------------------------------------------------|
B|-----7----------------------------------------------|
G|---------9p7-7~-------------------------------------|
D|-7h9---9--------------------------------------------|
A|----------------------------------------------------|
E|----------------------------------------------------|

E|-10-12-14--10-12----------b14r12p10----10h12--------|
B|-----------------12-12~\------------12--------------|
G|----------------------------------------------------|
D|----------------------------------------------------|
A|----------------------------------------------------|
E|----------------------------------------------------|

E|----7-----------------------------------------------|
B|-10---10-7------------7-----------------------------|
G|-----------9b11-9-7-9---7------------------7~-------|
D|--------------------------9p7--------7--9-----------|
A|------------------------------9--7h9----------------|
E|----------------------------------------------------|

It just takes
   Em7
A little bit of this
   D7M
A little bit of that
     Em7
It started with a kiss
     D7M
Now we're up to bat
   Em7
A little bit of laughs
   D7M
A little bit of pain
     Em7
I'm telling you, my baby
     A4(7/9)             Em7
It's all in the game of love
     D7M                  G5  A4(7/9)
It's all in this game of love

Terceira Parte:

     Bm
You roll me
     F#m
Control me
    G5
Console me
   A4(7/9)
Please hold me
      Bm
You guide me
   F#m
Divide me
       G5  A4(7/9)
Into what

Solo: Em7  D7M  Em7  D7M  Em7  D7M  G5  A4(7/9)
      Em7  D7M  Em7  D7M  Em7  D7M  G5  A4(7/9)

(Parte 1)
E|-----10----12b14-b14...-12b14--b14-b14-b14r12--10-12|
B|-/12----x-------------------------------------------|
G|----------------------------------------------------|
D|----------------------------------------------------|
A|----------------------------------------------------|
E|----------------------------------------------------|

E|-10-10~----------15--14h15--14----------------------|
B|--------10h12\-----------------15\------------------|
G|----------------------------------------------------|
D|----------------------------------------------------|
A|----------------------------------------------------|
E|----------------------------------------------------|

(Parte 2)
E|--------------------------------------------14------|
B|--------------------------15-15-15--17--17----------|
G|----------------14-16-16~---------------------------|
D|-14p12----12-14-------------------------------------|
A|-------14-------------------------------------------|
E|----------------------------------------------------|

E|-------17-------17-------17-------------------------|
B|-14h15----14h15----14h15----------------------------|
G|----------------------------------------------------|
D|----------------------------------------------------|
A|----------------------------------------------------|
E|----------------------------------------------------|

E|-17p14-17p14-17-17p14-17-17p14-17p14-17p14...-------|
B|----------------------------------------------------|
G|----------------------------------------------------|
D|----------------------------------------------------|
A|----------------------------------------------------|
E|----------------------------------------------------|

(Parte 3)
E|-17b19------17b19-17b19-17b19---17b19--17b19--17b19-|
B|----------------------------------------------------|
G|----------------------------------------------------|
D|----------------------------------------------------|
A|----------------------------------------------------|
E|----------------------------------------------------|

E|-17b19r---14-17-14h17p14----14~---------------------|
B|-------------------------17-------------------------|
G|----------------------------------------------------|
D|----------------------------------------------------|
A|----------------------------------------------------|
E|----------------------------------------------------|

(Parte 4)
E|-14------------------------------12-----------------|
B|----17-15--15-17--12~--12--15-------12h14br-p12-----|
G|------------------------------------------------14--|
D|----------------------------------------------------|
A|----------------------------------------------------|
E|----------------------------------------------------|

E|------------------12--------------------------------|
B|-12-12-12---15-15-----------------------------------|
G|----------------------------------------------------|
D|----------------------------------------------------|
A|----------------------------------------------------|
E|----------------------------------------------------|

(Parte 5)
E|------19--19--21--22--21--22p21p19-22p21p19-22p21p19|
B|-/19------------------------------------------------|
G|----------------------------------------------------|
D|----------------------------------------------------|
A|----------------------------------------------------|
E|----------------------------------------------------|

E|-22p21p19-22--22--22b24--19--19~--19~--22-19--19~-19|
B|----------------------------------------------------|
G|----------------------------------------------------|
D|----------------------------------------------------|
A|----------------------------------------------------|
E|----------------------------------------------------|

(Parte 6)
E|-17-14----------------------------------------------|
B|-------17b19--17-15-17-15~--15----------------------|
G|----------------------------------------------------|
D|----------------------------------------------------|
A|----------------------------------------------------|
E|----------------------------------------------------|

Quarta Parte:

(Parte 12)
E|-10~------------------------------------------------|
B|-----10h12~p10--------------------------------------|
G|----------------------------------------------------|
D|----------------------------------------------------|
A|----------------------------------------------------|
E|----------------------------------------------------|

(Parte 13)
E|-7--------------------------------------------------|
B|----------------------------------------------------|
G|---9b11--9--7--9--7~--------------------------------|
D|----------------------------------------------------|
A|----------------------------------------------------|
E|----------------------------------------------------|

(Parte 14)
E|-/10~-7h9b~p7---------------------------------------|
B|---------------10~----------------------------------|
G|----------------------------------------------------|
D|----------------------------------------------------|
A|----------------------------------------------------|
E|----------------------------------------------------|

(Parte 15)
E|-----10-12-12b14-10-10~\----------------------------|
B|-/12------------------------------------------------|
G|----------------------------------------------------|
D|----------------------------------------------------|
A|----------------------------------------------------|
E|----------------------------------------------------|

                    Em7  D7M
So please tell me why
                 G5           A4(7/9)
Don't you come around no more
                     Em7  D/F#
Cause right now I'm dying
    G5                      A4(7/9)
Outside the door of your loving store

Terceiro Refrão:

E|----------------------------------------------------|
B|----------------------------------------------------|
G|----------------------------------------------------|
D|-12p11p9\7~---7-9-----------------------------------|
A|------------9---------------------------------------|
E|----------------------------------------------------|

E|---------------10-10h12----14-15-14-15-17-----------|
B|-----10--12-12----------------------------15-15~\---|
G|-7h9------------------------------------------------|
D|----------------------------------------------------|
A|----------------------------------------------------|
E|----------------------------------------------------|

It just takes
   Em7
A little bit of this
   D7M
A little bit of that
     Em7
It started with a kiss
     D7M
Now we're up to bat
   Em7
A little bit of laughs
   D7M
A little bit of pain
     G5
I'm telling you, my babe
     A4(7/9)              Em7
It's all in this game of love

Final:

E|----------------------------------------------------|
B|----------------------------------------------------|
G|-----7~---------------------------------------------|
D|-7-9------------------------------------------------|
A|----------------------------------------------------|
E|----------------------------------------------------|

E|----------------------------------------------------|
B|----------------------------------------------------|
G|-9b11-9-7~h9----------------------------------------|
D|----------------------------------------------------|
A|----------------------------------------------------|
E|----------------------------------------------------|

E|-17h19-17-17~---------------------------------------|
B|----------------------------------------------------|
G|----------------------------------------------------|
D|----------------------------------------------------|
A|----------------------------------------------------|
E|----------------------------------------------------|

E|----------------------------------------------------|
B|-15h17-15---------------15--------------------------|
G|----------14h16--14--16-----------------------------|
D|----------------------------------------------------|
A|----------------------------------------------------|
E|----------------------------------------------------|

E|-17--17p14--17p14--17-17p14----14----14-------------|
B|----------------------------17----17----15~-17------|
G|-----------------------------------------------16~--|
D|----------------------------------------------------|
A|----------------------------------------------------|
E|----------------------------------------------------|

     D7M                  Em7
It's all in this game of love
     D7M                 Em7
It's all in the game of love
  D7M                 G5   A4(7/9)
Yeah, in the game of love

E|--------------14-14-------14-------14-------14------|
B|----15-17b19--------17b19----17b19----17b19---------|
G|-16-------------------------------------------------|
D|----------------------------------------------------|
A|----------------------------------------------------|
E|----------------------------------------------------|

E|-------14-17p14----14-------------------------------|
B|-17b19----------17----17b19-17-15-17-15-15-15-17----|
G|-------------------------------------------------16~|
D|----------------------------------------------------|
A|----------------------------------------------------|
E|----------------------------------------------------|

E|----------------------------------------------------|
B|----15----------------------------------------------|
G|-16-------------------------------------------------|
D|----------------------------------------------------|
A|----------------------------------------------------|
E|----------------------------------------------------|

E|-17-------------------------------------------------|
B|----17b19--17-15-17-15-15~-17-----b19r17p15--17-----|
G|----------------------------------------------------|
D|----------------------------------------------------|
A|----------------------------------------------------|
E|----------------------------------------------------|

 Em7
Roll me (a little bit of this)
     D7M
Control me (a little bit of that)
   Em7         D7M
Please hold me

(Make me feel good)

E|-17p14----14-------14-------------------------------|
B|-------17----17b19-----17-15-17-15~-17--------------|
G|----------------------------------------------------|
D|----------------------------------------------------|
A|----------------------------------------------------|
E|----------------------------------------------------|

E|----------------------------------------------------|
B|----------------------------------------------------|
G|-14h16-14h16-14h16~--14-----------------------------|
D|----------------------------------------------------|
A|----------------------------------------------------|
E|----------------------------------------------------|

    Em7
(A little bit of laughs)
    D7M
(A little bit of pain)

         G5         A4(7/9)
Now here on my own, on mwy own

E|-/19~-19~-19~-19~--22p19-22-22p19-22p19-19p15-------|
B|----------------------------------------------17p15-|
G|----------------------------------------------------|
D|----------------------------------------------------|
A|----------------------------------------------------|
E|----------------------------------------------------|

E|----------------------------------------------------|
B|-15-17-17b19--b19r17p15-----------------------------|
G|----------------------------------------------------|
D|----------------------------------------------------|
A|----------------------------------------------------|
E|----------------------------------------------------|

E|-------14-------14-------14-------14-------14-------|
B|-17b19----17b19----17b19----17b19----17b19----17b21-|
G|----------------------------------------------------|
D|----------------------------------------------------|
A|----------------------------------------------------|
E|----------------------------------------------------|

E|----------------------------------------------------|
B|-17b21--17b21--17b21r--15-17-15-15~-----------------|
G|----------------------------------------------------|
D|----------------------------------------------------|
A|----------------------------------------------------|
E|----------------------------------------------------|

    Em7
(A little bit of this)
    D7M                Em7  D7M
(A little bit of that)

    Em7
(A little bit of laughs)
    D7M                Em7  D7M
(A little bit of pain)
Composição de A. Ander / Alex Ander / R. Nowels / Rick Nowels
Colaboração e revisão:
  • Vinícius Dias
110.807 exibições
    • ½ Tom
    • A
    • Bb
    • B
    • C
    • Db
    • D
    • Eb
    • E
    • F
    • F#
    • G
    • Ab
  • Adicionar à lista

    0 comentários

    Ver todos os comentários
    00:00 / 00:00
    outros vídeos desta música
    repetir qualidade Automático
    Outros vídeos desta música
    00:00 / 00:00
    Automático
    Capítulos
    • Início
    • Tocando a música
    • Configuração dos Efeitos
    • Tocando Introdução
    • Ensinando Introdução
    • Tocando Primeira Estrofe
    • Ensinando Frases da Primeira Estrofe
    • Tocando Primeiro Refrão
    • Ensinando Primeiro Refrão
    • Tocando Segunda Estrofe
    • Ensinando Frases da Segunda Estrofe
    • Tocando Segundo Refrão
    • Ensinando Segundo Refrão
    • Tocando Solo Principal
    • Ensinando Solo
    • Tocando Quarta Estrofe
    • Ensinando Frases da Quarta Estrofe
    • Tocando Terceiro Refrão
    • Ensinando Terceiro Refrão
    • Tocando Final
    • Ensinando Final
    • Encerramento

    Cifra Club Pro

    Aproveite o Cifra Club com benefícios exclusivos e sem anúncios
    Cifra Club Pro
    Aproveite o Cifra Club com benefícios exclusivos e sem anúncios
    OK