Cifra Club

You And I

Scorpions

Cifra: Versão 3 (violão e guitarra)
tom: C
Base: C  Am  Dm  G
E|----17-20-19b20---19p17-22b24--22---19-17----17-|
B|-17---------------------------------------17----|
G|------------------------------------------------|
D|------------------------------------------------|
A|------------------------------------------------|
E|------------------------------------------------|

E|--17/5----------12-15-13/12--------12-----------|
B|-------------13-------------15--13-----15p13h15-|
G|-------12/14------------------------------------|
D|------------------------------------------------|
A|------------------------------------------------|
E|------------------------------------------------|

E|-----------------|
B|-----------------|
G|-14-12~~~~~~~~---|
D|-----------------|
A|-----------------|
E|-----------------|

Verso:
   C                Am
E|---------------|---------------|
B|---------1---1-|---------1p0---|
G|-----0-----0---|-------2-----2-|
D|---2---2-------|-0---2---------|
A|-3-------------|---0-----------|
E|---------------|---------------|

    Dm              G
E|---------1p0---|--------3-|
B|-------3-----3-|--------3-|
G|-----2---------|-0---0--0-|
D|-0-0-----------|---0----0-|
A|---------------|----------|
E|---------------|----------|

C          Am Dm              G
I lose control because of you babe
C          Am Dm                   G
I lose control when you look at me like this
       C                  Am           Dm       G
there's something in your eyes that is saying tonight

          C
I'm not a child anymore.
         Am                   Dm           G
Life has opened the door to a new exciting life
C          Am Dm                     G
I lose control when I'm close to you babe
C          Am Dm                G
I lose control don't look at me like this
       C                  Am            Dm            G
there's something in your eyes, is this love at first sight
       C                            Am
like a flower that grows, life just wants you to know
    Dm             G
all the secrets of life
Pré-Refrão:
    Dm                   Em
E|---------1p0--------|-------0------------|
B|-----3-------3------|----------3/5-3-3/5-|
G|---2---2-------2----|-----0----2/4-2-2/4-|
D|-0----------------0-|---2----------------|
A|--------------------|--------------------|
E|--------------------|-0------------------|
    Dm                   G
E|---------1p0--------|-3--|
B|-----3-------3------|-3--|
G|---2---2-------2----|-0--|
D|-0----------------0-|-0--|
A|--------------------|-2--|
E|--------------------|-3--|

Dm                           Em
It's all written down in your lifelines
Dm                           G
it's written down inside your heart

Refrão:
C5     A5 D5          G5
You and I just have a dream
C5          A5           D5
to find our love a place
                   G5
where we can hide away

Base: C  Am  Dm  G
E|----17-20-19b20---19p17-22b24--22---19-17----17-|
B|-17---------------------------------------17----|
G|------------------------------------------------|
D|------------------------------------------------|
A|------------------------------------------------|
E|------------------------------------------------|

E|--17/5----------12-15-13/12--------12-----------|
B|-------------13-------------15--13-----15p13h15-|
G|-------12/14------------------------------------|
D|------------------------------------------------|
A|------------------------------------------------|
E|------------------------------------------------|

E|-----------------|
B|-----------------|
G|-14-12~~~~~~~~---|
D|-----------------|
A|-----------------|
E|-----------------|

Verso:
   C                Am
E|---------------|---------------|
B|---------1---1-|---------1p0---|
G|-----0-----0---|-------2-----2-|
D|---2---2-------|-0---2---------|
A|-3-------------|---0-----------|
E|---------------|---------------|
    Dm              G
E|---------1p0---|--------3-|
B|-------3-----3-|--------3-|
G|-----2---------|-0---0--0-|
D|-0-0-----------|---0----0-|
A|---------------|----------|
E|---------------|----------|

C          Am Dm              G
I lose control because of you babe
C          Am Dm                   G
I lose control when you look at me like this
       C                  Am           Dm       G
there's something in your eyes that is saying tonight

          C
I'm not a child anymore.
         Am                   Dm           G
Life has opened the door to a new exciting life
C          Am Dm                     G
I lose control when I'm close to you babe
C          Am Dm                G
I lose control don't look at me like this
       C                  Am            Dm            G
there's something in your eyes, is this love at first sight
       C                            Am
like a flower that grows, life just wants you to know
    Dm             G
all the secrets of life
Pré-Refrão:
    Dm                   Em
E|---------1p0--------|-------0------------|
B|-----3-------3------|----------3/5-3-3/5-|
G|---2---2-------2----|-----0----2/4-2-2/4-|
D|-0----------------0-|---2----------------|
A|--------------------|--------------------|
E|--------------------|-0------------------|
    Dm                   G
E|---------1p0--------|-3--|
B|-----3-------3------|-3--|
G|---2---2-------2----|-0--|
D|-0----------------0-|-0--|
A|--------------------|-2--|
E|--------------------|-3--|

Dm                           Em
It's all written down in your lifelines
Dm                           G
it's written down inside your heart

Refrão:
C5     A5 D5          G5
You and I just have a dream
C5          A5           D5
to find our love a place
                   G5
where we can hide away

(Parte 2)

Base: C5  A5  D5  G5

Base: D5  B5  E5  A5
E|----19-22-21b22---21p19-24b26--24---21-19----19-|
B|-19---------------------------------------19----|
G|------------------------------------------------|
D|------------------------------------------------|
A|------------------------------------------------|
E|------------------------------------------------|

E|--19/7----------14-17-15/14--------14-----------|
B|-------------15-------------17--15-----17p15h17-|
G|-------14/16------------------------------------|
D|------------------------------------------------|
A|------------------------------------------------|
E|------------------------------------------------|

E|-----------------|-----|
B|-----------------|-----|
G|-16-14~~~~~~~~---|-5\--|
D|-----------------|-5\--|
A|-----------------|-3\--|
E|-----------------|-----|
00:00 / 00:00
Outros vídeos desta música
Repetir
Outros vídeos desta música
Composição de Klaus Meine / Rudolf Schenker
Colaboração e revisão:
  • Héron Marques
1.371 exibições
    • ½ Tom
    • A
    • Bb
    • B
    • C
    • Db
    • D
    • Eb
    • E
    • F
    • F#
    • G
    • Ab
  • Adicionar à lista

    0 comentários

    Ver todos os comentários

    Conseguiu tocar?

    2 Tocaram 0 Ainda não

    Grave um vídeo tocando You And I e nos envie!

    00:00 / 00:00

    Cifra Club Pro

    Aproveite o Cifra Club com benefícios exclusivos e sem anúncios
    Cifra Club Pro
    Aproveite o Cifra Club com benefícios exclusivos e sem anúncios
    OK