Cifra Club

Aprenda

Rock You Like a Hurricane

Scorpions

Cifra: Principal (violão e guitarra)
Já pensou em usar uma coleção de roupas do Cifra Club? Responda as perguntas abaixo e nos ajude nessa missão! →
tom: G
[Intro] E5  G5  A5  C5  D5 (8x)

(Guitarra 1)

E|0-0-0---0----0----0----0--0------------------------|
B|------5----5----5----5-----------------------------|
G|---------------------------------------------------| (4x)
D|---------------------------------------------------|
A|---------------------------------------------------|
E|---------------------------------------------------|

E|------10---------/15-14h15p14p12----------15-------|
B|10b12----10b12~------------------15-15b17----15b17~|
G|---------------------------------------------------|
D|---------------------------------------------------|
A|---------------------------------------------------|
E|---------------------------------------------------|

E|17b19r17p15-17~---22b24--22b24--22b24-22b24r22--19-|
B|---------------------------------------------------|
G|---------------------------------------------------|
D|---------------------------------------------------|
A|---------------------------------------------------|
E|---------------------------------------------------|

E|22-20-19----20-19-------19h20p19----------22\------|
B|---------22-------22-20----------22-20h22----------|
G|---------------------------------------------------|
D|---------------------------------------------------|
A|---------------------------------------------------|
E|---------------------------------------------------|

E|12----------12----------12-------12-------12-------|
B|---15b17-------15b17-------15b17----15b17----15b17-|
G|---------------------------------------------------|
D|---------------------------------------------------|
A|---------------------------------------------------|
E|---------------------------------------------------|

E|12-------12-------12-17p12-------------------------|
B|---15b17----15b17----------15-12-------------------|
G|---------------------------------14-12-------------|
D|---------------------------------------14-12-------|
A|---------------------------------------------14-12-|
E|---------------------------------------------------|

E|---------------------------------------------------|
B|---------------------------------------------------|
G|---------------------------------------------------|
D|---------------------------------------------------|
A|---------------------------------------------------|
E|-15~\----------------------------------------------|

(Guitarra 2)

E|---------------------------------------------------|
B|12-12-12-12-12--12--12--12--12-12-12-12-12-10h12p10|
G|---------------------------------------------------|
D|---------------------------------------------------|
A|---------------------------------------------------|
E|---------------------------------------------------|

E|---------------------15-----------/19--17h19p17p15-|
B|--------------15b17------15b17~~-------------------|
G|12-11-9--------------------------------------------|
D|--------12-9\--------------------------------------|
A|---------------------------------------------------|
E|---------------------------------------------------|

E|14--------19----------22b24r22p20--22~-------------|
B|---19b20------19b20~-------------------------------|
G|---------------------------------------------------|
D|---------------------------------------------------|
A|---------------------------------------------------|
E|---------------------------------------------------|

(Guitarra 3)

E|---------------------------------------------------|
B|7h8p7----------------------------------------------|
G|------9-7------------------------------------------|
D|----------9\7-5------------------------------------|
A|----------------7----------------------------------|
E|---------------------------------------------------|
 
[Primeira Parte]

     C5     E5          C5       E5  D5
It's early morning the sun comes out
      C5         E5          C5    D5  (Riff 1)
Last night was shaking and pretty loud
    C5     E5            C5          E5 D5
My cat is purring and scratches my skin
     C5      E5         C5     D5
So what is wrong with another sin

(Riff 1)

  H.N.  .  .
E|---------5-----------------------------------------|
B|---------------------------------------------------|
G|------5--------------------------------------------|
D|7--5-----------------------------------------------|
A|---------------------------------------------------|
E|---------------------------------------------------|

     C5       E5         C5       E5  D5
The bitch is hungry she needs to tell
    C5      E5          C5      D5
So give her inches and feed her    well
      C5      E5        C5       E5  D5
More days to come new places to go
      C5     E5         C5          D5
I've got to leave it's time for a show

[Refrão]

 E5       G5  A5
Here I am
 C5   D5         E5       G5  A5  C5  D5
Rock you like a hurricane

 E5       G5  A5
Here I am
 C5   D5         E5       G5  A5  C5  D5
Rock you like a hurricane

[Segunda Parte]

    C5 [    D     E5          C5        E5  D5
My body is burning it starts to shout
   C5      E5         C5        D5
Desire is coming it breaks out loud
     C5     E5          C5          E5   D5
Lust is in cages till storm breaks loose
      C5      E5           C5         D5
Just have to make it with someone I choose

(Riff 2)

     C5       E5        C5      E5  D5
The night is calling I have to go
     C5      E5        C5        D5
The wolf is hungry he runs the show
      C5          E5         C5       E5  D5
He's licking his lips, he's ready to win
        C5     E5        C5             D5
On the hunt tonight for love at first sting

(Riff 2)

   C5    E5    C5    E5  D5  C5    E5    C5    D5
E|---------------------------------------------------|
B|---------------------------------------------------|
G|-------9-9\--------9---7~--------9-9~--------7~----|
D|-------9-9\--------9-x-7~--------9-9~--------7~----|
A|---------------------------------------------------|
E|8-8-x-------8-8-x--------/8-8-x-------8-8-x-------

[Refrão]

 E5       G5  A5
Here I am
 C5   D5         E5       G5  A5  C5  D5
Rock you like a hurricane

 E5       G5  A5
Here I am
 C5   D5         E5       G5  A5  C5  D5
Rock you like a hurricane

 E5       G5  A5
Here I am
 C5   D5         E5       G5  A5  C5  D5
Rock you like a hurricane    (C'mon, c'mon, c'mon, c'mon)

 E5       G5  A5
Here I am
 C5   D5         E5       G5  A5  C5  D5
Rock you like a hurricane

( E5  D5 )

[Solo] E5  G5  A5  C5  D5 (8x)

(Parte 1)
                                   H.A
E|12-------12----17b19-17~~--------------------------|
B|15b17~------12-------------------------------------|
G|---------------------------14----14b15-------------|
D|------------------------------17-------------------|
A|---------------------------------------------------|
E|---------------------------------------------------|

(Parte 2)
                      T         T          T
E|7h10p7h10p7h10p7h10-12/--7h10-12p10p7h10-12/-------|
B|---------------------------------------------------|
G|---------------------------------------------------|
D|----------------------------------------------X\---|
A|----------------------------------------------X\---|
E|----------------------------------------------X\---|

(Parte 3)

E|---------------------------------------------------|
B|---------------------------------------------12-12-|
G|---------------------------12-12-12-14-14-14-------|
D|---------12-12-12-14-14-14-------------------------|
A|14-14-14-------------------------------------------|
E|---------------------------------------------------|

E|------------------------------12-12-12-15-15-15----|
B|12----------12-12-12-15-15-15----------------------|
G|---14-14-14----------------------------------------|
D|---------------------------------------------------|
A|---------------------------------------------------|
E|---------------------------------------------------|

E|-17b19r17p15------------12-------------------------|
B|-------------15b7----------15-12-------------------|
G|------------------14b16-----------14h16p14p12------|
D|----------------------------------------------14~--|
A|---------------------------------------------------|
E|---------------------------------------------------|

E|---------------------------------------------------|
B|15-------------15-------------15-------------------|
G|14b15r14p12----14b15r14p12----14b15r14p12----------|
D|------------14-------------14-------------14~\-----|
A|---------------------------------------------------|
E|---------------------------------------------------|

  H.A .   .   .   .
E|---------------------------------------------------|
B|---------------------------------------------------|
G|0---1~--2~--3~--4~~--------------------------------|
D|---------------------------------------------------|
A|---------------------------------------------------|
E|---------------------------------------------------|

(Variações da parte 3)

  H.A
E|17b19r17p15-17~~--12-------------------------------|
B|---------------------15-12-------------------------|
G|---------------------------14h16p14p12-------------|
D|---------------------------------------14~---------|
A|---------------------------------------------------|
E|---------------------------------------------------|

E|-------------------12-12-15-15-17b19r17p15---------|
B|-------12-12-15-15-------------------------15b17---|
G|-14-14---------------------------------------------|
D|---------------------------------------------------|
A|---------------------------------------------------|
E|---------------------------------------------------|

E|-------12------------------------------------------|
B|----------15-12------------------------------------|
G|-14b16----------14h16p14p12------------------------|
D|----------------------------14~--------------------|
A|---------------------------------------------------|
E|---------------------------------------------------|

(Parte 4)

E|---------------------------------------------------|
B|---3-5p3----5-8p5----8-10p8-----12-15p12-----------|
G|4-------/7-------/9--------/14---------------------|
D|---------------------------------------------------|
A|---------------------------------------------------|
E|---------------------------------------------------|

E|-------------------------------------------19-22p19|
B|----15-17p15-----17-20p17-----20-22p20-/20---------|
G|16----------/19----------/21-----------------------|
D|---------------------------------------------------|
A|---------------------------------------------------|
E|---------------------------------------------------|

(Parte 5)

E|------22-------------------------------------------|
B|22b24----22b24~~b1/4r\--------------------------20-|
G|---------------------------------------19-20-21----|
D|---------------------------17-19-20-21-------------|
A|------------------------19-------------------------|
E|---------------------------------------------------|

E|---------22-22b24~~------17-------------17\--------|
B|22-22b24-------------------------------------------|
G|---------------------19---------19-----------------|
D|------------------------------------19-------------|
A|----------------------------17---------------------|
E|---------------------------------------------------|

(Parte 6)

E|------------19-20-22-22b24--22b24--22b24-b24r22----|
B|---19-20-22----------------------------------------|
G|21-------------------------------------------------|
D|---------------------------------------------------|
A|---------------------------------------------------|
E|---------------------------------------------------|

E|19-22-20-19----20-19-------19h20p19----------------|
B|------------22-------22-20----------22-20\---------|
G|---------------------------------------------------|
D|---------------------------------------------------|
A|---------------------------------------------------|
E|---------------------------------------------------|

(Parte 7)

E|---------------------------------------------------|
B|12----12-------------12----12----------------------|
G|---15----15p14p12-------15----15p12----------------|
D|------------------14----------------14-------------|
A|---------------------------------------------------|
E|---------------------------------------------------|
                                         H.A.  .  .
E|---------------------------------------------------|
B|12----12-------------------------------------------|
G|---15----15p12---------0-2-3-2h3p2p0---0--1--2--3--|
D|---------------14~\--2---------------2-------------|
A|---------------------------------------------------|
E|---------------------------------------------------|
H.A
E|---------------------------------------------------|
B|---7b8~~\------------------------------------------|
G|4--7b8~~\------------------------------------------|
D|---------------------------------------------------|
A|---------------------------------------------------|
E|---------------------------------------------------|

It's early morning the sun comes out

Last night was shaking and pretty loud

My cat is purring it scratches my skin
                                 ( D5 )
So what is wrong with another sin

     C5       E5        C5      E5  D5
The night is calling I have to go
     C5      E5        C5        D5
The wolf is hungry he runs the show
      C5          E5         C5       E5  D5
He's licking his lips, he's ready to win
        C5     E5        C5             D5
On the hunt tonight for love at first sting

[Refrão]

 E5       G5  A5
Here I am
 C5   D5         E5       G5  A5  C5  D5
Rock you like a hurricane

 E5       G5  A5
Here I am
 C5   D5         E5       G5  A5  C5  D5
Rock you like a hurricane

 E5       G5  A5
Here I am
 C5   D5         E5       G5  A5  C5  D5
Rock you like a hurricane

 E5       G5  A5
Here I am
 C5   D5         E5       G5  A5  C5  D5
Rock you like a hurricane

 E5 
Here I am

[Refrão]

E|12------12-----------------------------------------|
B|15b17~--15b17~~------------------------------------|
G|---------------------------------------------------|
D|---------------------------------------------------|
A|---------------------------------------------------|
E|---------------------------------------------------|

[Solo Final]

  H.A.  .  .  .  .
E|---------------------------------------------------|
B|------------3--5-----------------------------------|
G|------2--4-----------------------------------------|
D|---2-----------------------------------------------|
A|0--------------------------------------------------|
E|---------------------------------------------------|

E|0-0-0---0----0----0----0--0------------------------
B|------5----5----5----5-----------------------------|
G|---------------------------------------------------| (3x)
D|---------------------------------------------------|
A|---------------------------------------------------|
E|---------------------------------------------------|

E|------12-------------12-------------12-------------|
B|---------15p12----------15p12----------15p12-------|
G|14b16----------14b16----------14b16----------14b16-|
D|---------------------------------------------------|
A|---------------------------------------------------|
E|---------------------------------------------------|

E|12-------------12----------------------------------
B|---15p12----------15p12----------------------------|
G|---------14b16-------------------------------------|
D|---------------------------------------------------|
A|---------------------------------------------------|
E|---------------------------------------------------|
     
                     T
E|---------------------------------------------------|
B|12h15p12h15p12h15--17/--P12h15p12h15p12h15p12------|
G|---------------------------------------------------|
D|---------------------------------------------------|
A|---------------------------------------------------|
E|---------------------------------------------------|

E|---------------------------------------------------|
B|-17/-p12h15p12-------------------------------------|
G|---------------------------------------------------|
D|----------------x\---------------------------------|
A|----------------x\---------------------------------|
E|----------------x\---------------------------------|

E|---------------------------------------------------|
B|---------------------------------------------12-12-|
G|---------------------------12-12-12-14-14-14-------|
D|---------12-12-12-14-14-14-------------------------|
A|14-14-14-------------------------------------------|
E|---------------------------------------------------|

E|------------------------------12-12-12-15-15-15----|
B|12----------12-12-12-15-15-15----------------------|
G|---14-14-14----------------------------------------|
D|---------------------------------------------------|
A|---------------------------------------------------|
E|---------------------------------------------------|

E|17b19r---------------12----------------------------|
B|--------15b17~----------15p12----------------------|
G|---------------14b16----------14-12----------------|
D|------------------------------------14-12----------|
A|------------------------------------------14-12----|
E|------------------------------------------------15\|

E|---------------------------------------------------|
B|---------------------------------------------------|
G|---------------------------------------------------|
D|14-14-14\------------------------------------------|
A|14-14-14\------------------------------------------|
E|12-12-12\------------------------------------------|
Composição de Herman Rarebell / Klaus Meine / Rudolf Schenker
467.975 exibições
    • ½ Tom
    • A
    • Bb
    • B
    • C
    • Db
    • D
    • Eb
    • E
    • F
    • F#
    • G
    • Ab
  • Adicionar à lista

    0 comentários

    Ver todos os comentários

    Conseguiu tocar?

    75 Tocaram 5 Ainda não

    Grave um vídeo tocando Rock You Like a Hurricane e nos envie!

    00:00 / 00:00
    Outros vídeos desta música
    Repetir Qualidade Automático
    Outros vídeos desta música
    00:00 / 00:00
    Automático
    Capítulos
    • Início
    • Tocando a música
    • Configuração dos Efeitos
    • Acordes da Intro (Riff Principal)
    • Tocando Introdução
    • Ensinando Base da Intro (Riff Principal)
    • Ensinando Solo da Intro (Guitarra 1)
    • Ensinando Solo da Intro (Guitarra 2)
    • Ensinando Solo da Intro (Guitarra 3)
    • Tocando Primeira Parte
    • Ensinando Base da Primeira Parte
    • Ensinando Riff 1
    • Tocando Refrão
    • Ensinando Passagens do Refrão
    • Tocando Segunda Parte e Segundo Refrão
    • Ensinando Riff da Segunda Parte
    • Tocando Solo
    • Ensinando Solo - Parte 1
    • Ensinando Solo - Parte 2
    • Ensinando Solo - Parte 3
    • Ensinando Solo - Parte 4
    • Ensinando Solo - Parte 5
    • Ensinando Solo - Parte 6
    • Ensinando Solo - Parte 7
    • Tocando Solo (Lento)
    • Tocando Final
    • Ensinando Solo Final
    • Encerramento

    Cifra Club Pro

    Aproveite o Cifra Club com benefícios exclusivos e sem anúncios
    Cifra Club Pro
    Aproveite o Cifra Club com benefícios exclusivos e sem anúncios
    OK