Cifra Club

Aprenda

O Vira

Secos & Molhados

Tab de baixo: Principal
Intro (solo de guitarra):
   C
G|-----------------|-----------------|
D|-----------------|-----------------|
A|-3-3-3-3-3-3-3-3-|-3-3-3-3-3-3-3-3-| (slap)
E|-----------------|-----------------|

-Walking Bass-

Verso:
   C                 F                 C                 G
G|---------7-5-4---|-----------------|---------7-5-4---|-----------------|
D|---4-5-7-------5-|-3-2-------------|---4-5-7-------3-|-5-3-2-3-5-3-2-3-|
A|-3---------------|-----5-3---0-1-2-|-3---------------|-----------------|
E|-----------------|---------1-------|-----------------|-----------------|

   C7                F                 G                 C
G|---------7-5-4---|-----------------|-----------------|---------|
D|---4-5-7-------5-|-3-2-------------|---------5-3-2---|---------|
A|-3---------------|-----5-3---0-1-3-|---2-3-5-------5-|-3-------|
E|-----------------|---------1-------|-3---------------|---------|

Refrão:
    G                 C 
G||-----------------|---------7-5-4---||
D||-5-3-2-3-5-3-2-3-|---4-5-7-------3-||
A||-----------------|-3---------------||
E||-----------------|-----------------||

-Fado-

Verso:
   C                
G|-----7-------7---|
D|----7-------7----|
A|-3-----3-3-----3-|
E|-----------------| 

E assim consecutivamente, com os demais acordes.
Composição de João Ricardo / Luli
Colaboração e revisão:
  • Kiyoto
2.984 exibições

0 comentários

Mostrar mais comentários

Conseguiu tocar?

0 Tocaram 0 Ainda não

Grave um vídeo tocando O Vira e mande pra gente!

00:00 / 00:00
outros vídeos desta música
repetir qualidade Automático
Outros vídeos desta música
00:00 / 00:00
Automático
OK