Cifra Club

Aprenda

Bem Distante Eu Te Vi

Shirley Carvalhaes

Cifra: Principal (violão e guitarra)
tom: D
E|-----------------------------------1014--12---10-12-10-12-10-12-14-14-12-10-10-12-14-19-17-14-10-12/14---|
B|---5/7\5-3-3/5-5/7\5-3---5/7\5-3---3-3/5-7---------------------------------------------------------------|
G|---------------4---------2-------------------------------------------------------------------------------|
D|---------------------------------------------------------------------------------------------------------|
A|---------------------------------------------------------------------------------------------------------|
E|---------------------------------------------------------------------------------------------------------|

E|--14-12-10-13-12-10---|
B|----------------------|
G|----------------------|
D|----------------------|
A|----------------------|
E|----------------------|

D
Bem distante eu te vi, parado a beira do caminho
       A
Cabisbaixo e sem direção, se sentindo tão sozinho
      G
Coração batendo angustiado em seu peito
                      D
Você vive maus momentos

    G                                                        D
É todo dia a mesma coisa e você se cansou de tanto sofrimento
              A                                       G           D
Mas eu declaro que chegou a hora e deus vai tirar você desse vento
       G
Se a fúria do inimigo contra ti se levantar
         D
Ele ordena anjos poderosos para te guardar
         A                                        E   F#m   G         D
Foi ungido, foi remido e separado pra vencer          e reinar com ele

                  A
Deus vai na frente garantindo a vitória para os filhos seus
                  Bm                                           G
Quebrando as correntes sujeitando os inimigos porque ele é Deus
                      D                               A
Vai sair água da rocha com esse Deus não há quem possa
                    D
Não há como nosso Deus

        A
Lá no egito trouxe as pragas e humilhou um tal de faraó
                Bm                                        G
Exaltou a israel e fez saber que aquele povo não estava só
                         D                   A
Faz a morte virar vida pra tudo tem uma saída
             G          D
Não há Deus como esse Deus

   A                                        D G
Elohim , el shaday, adonai adoro o nome dele
                   D                        A                   D
Ele é Deus verdadeiro ele te amou primeiro te levanta desse chão

    A                                       D G
Elohim, el shaday, adonai  adore o nome dele
                      D                            A          G    D
Faz a morte virar vida  pra tudo tem uma saída faz de ti um campeão
Composição de Weslley
Colaboração e revisão:
  • Isnailson Pinheiro
  • Jonatas Oliveira
  • weslley
116.428 exibições
    • ½ Tom
    • A
    • Bb
    • B
    • C
    • Db
    • D
    • Eb
    • E
    • F
    • F#
    • G
    • Ab
  • Adicionar à lista

    0 comentários

    Ver todos os comentários
    00:00 / 00:00
    Outros vídeos desta música
    Repetir Qualidade Automático
    Outros vídeos desta música
    00:00 / 00:00
    Automático

    Cifra Club Pro

    Aproveite o Cifra Club com benefícios exclusivos e sem anúncios
    Cifra Club Pro
    Aproveite o Cifra Club com benefícios exclusivos e sem anúncios
    OK