Cifra Club

Balada do Amor Inabalável

Skank

Tab de baixo: Principal
exibições 10.480
----------------------------------------
----------------------------------------
-8--8-8--8-8--8---8--6--6-6--6-6--6---6-           (4x)
----------------------------------------

----------------------------------------
----------------------------------------
-8--8-8--8-8--8---8-8--8-8--8-8---8-----           (2x)
----------------------------------------

----------------------------------------
----------------------------------------
-6--6-6--6-6--6---6-6--6-6--6-6---6-----           (2x)
----------------------------------------

----------------------------------------
----------------------------------------
-8--8-8--8-8--8---8-8--8-8--8-8---8-----           
----------------------------------------

----------------------------------------
----------------------------------------
-8--8-8--8-8--8---8--6--6-6--6-6--6---6-           
----------------------------------------

----------------------------------------
----------------------------------------
-8--8-8--8-8--8---8---8--8-8---8--------
----------------------------------------
Composição: Fausto Fawcett / Samuel RosaColaboração e revisão:
  • Bruno

0 comentários

    mostrar mais comentários

    Conseguiu tocar?

    1tocaram0ainda não

    Grave um vídeo tocando Balada do Amor Inabalável e mande pra gente!

    00:00 / 00:00
    outros vídeos desta música
    repetirqualidadeautomática
    Outro vídeos desta música
      00:00 / 00:00
      automática
      OK