Cifra Club

Sick Of It

Skillet

Cifra: Principal (violão e guitarra)
Selo Cifra Club: esta cifra foi revisada para atender aos critérios oficiais da nossa Equipe de Qualidade.
tom: Ab (forma dos acordes no tom de Bb) Afinação: D G C F A D
Afinação: CGCFAD

D|----------------------------------------------------------------|
A|----------------------------------------------------------------|
F|----------------------------------------------------------------|
C|-0-0-10-0---0-10-0---0-8-0-5-0-3-0---0-10-0---0-10-0---0-10-8-7-|
G|-0-0-10-0---0-10-0---0-8-0-5-0-3-0---0-10-0---0-10-0---0-10-8-7-|
C|-0-0-10-0---0-10-0---0-8-0-5-0-3-0---0-10-0---0-10-0---0-10-8-7-|

Pré-Refrão:

D|---------------|
A|---------------|
F|---------------|
C|---------------|
G|-8-8-7--5-7-10-|
C|-8-8-7--5-7-10-|

Refrão:

D|--------------------------------------|
A|--------------------------------------|
F|------------------------------5-5-5-5-|
C|0-0-0-0---8-8-8-8---3-3-3-3---5-5-5-5-|
G|0-0-0-0---8-8-8-8---3-3-3-3---3-3-3-3-|
C|0-0-0-0---8-8-8-8---3-3-3-3---3-3-3-3-|

Parte final:

D|---------------------------------------------------------|
A|---------------------------------------------------------|
F|---------------------------------------------------------|
C|-0-0-0-5---0-0-0-8-7---0-0-0-5-3-5-7-2-3-3-5-7-2-2-3-2-0-|
G|-0-0-0-5---0-0-0-8-7---0-0-0-5-3-5-7-2-3-3-5-7-2-2-3-2-0-|
C|-0-0-0-5---0-0-0-8-7---0-0-0-5-3-5-7-2-3-3-5-7-2-2-3-2-0-|
Outros vídeos desta música
    6.015 exibições
      • ½ Tom
      • A
      • Bb
      • B
      • C
      • Db
      • D
      • Eb
      • E
      • F
      • F#
      • G
      • Ab
    • Adicionar à lista

    Afinação da cifra

    Afinador online

      0 comentários

      Ver todos os comentários

      Entre para o Cifra Club PRO

      Tenha acesso a benefícios exclusivos no App e no Site

      • Chega de anúncios

      • Badges exclusivas

      • Mais recursos no app do Afinador

      • Atendimento Prioritário

      • Aumente seu limite de lista

      • Ajude a produzir mais conteúdo

      Cifra Club Pro

      Aproveite o Cifra Club com benefícios exclusivos e sem anúncios
      Cifra Club Pro
      Aproveite o Cifra Club com benefícios exclusivos e sem anúncios
      Ops (: Contenido disponible sólo en portugués.
      OK