Cifra Club

Aprenda

Then The Morning Comes

Smash Mouth

Cifra: Principal (violão e guitarra)
tom: Db
Intro e riff
e------------------------|-----------------------|------------------------|
B------------------------|-----------------------|------------------------|
G------------------------|-----------------------|------------------------|
D---------1-3/4\3--------|--------1-3/4\3--------|---------1-3/4\3--------|
A--3--3-3---------3-1-3--|--3-3-3---------3-1-3--|--3--3-3---------3-1-3--|
E------------------------|-----------------------|------------------------|

e------------------------|
B------------------------|
G---------3-2------------|
D-------1----------------|
A--3--3------------------|
E------------------------|



solo 

e--666-555-3-2323-|---------------------------|--666-555-3-2323-|-------------|
B-----------------|---------------------------|-----------------|-------------|
G-----------------|---------------------------|-----------------|---------3-2--|
D-----------------|---------1-3/4-44444\1-----|-----------------|-------1------|
A-----------------|--3--3-3---------------3-1-|-----------------|--3-3--------|
E-----------------|---------------------------|-----------------|-------------|
Composição de Greg Camp
Colaboração e revisão:
  • filipe
4.712 exibições
    • ½ Tom
    • A
    • Bb
    • B
    • C
    • Db
    • D
    • Eb
    • E
    • F
    • F#
    • G
    • Ab
  • Adicionar à lista

    0 comentários

    Ver todos os comentários

    Conseguiu tocar?

    0 Tocaram 1 Ainda não

    Grave um vídeo tocando Then The Morning Comes e nos envie!

    00:00 / 00:00
    outros vídeos desta música
    repetir qualidade Automático
    Outros vídeos desta música
    00:00 / 00:00
    Automático

    Cifra Club Pro

    Aproveite o Cifra Club com benefícios exclusivos e sem anúncios
    Cifra Club Pro
    Aproveite o Cifra Club com benefícios exclusivos e sem anúncios
    OK