Cifra Club

Aprenda

I'm A Believer

Smash Mouth

Cifra: Principal (violão e guitarra)
tom: B
Intro Guitar:

      C#
E|--------------------------------------------------
B|--------------------------------------------------
G|--------------------------------------------------
D|-------2------2------2------2---------------------
A|---2h4----2h4----2h4----2h4----2h4p2p0------------
E|--------------------------------------------------


   F#               C#            F#         F#
I thought love was only true in fairy tales
F#                C#               F#      F#
Meant for someone else but not for me

B               F#      B                      F#
Love was out to get me, that's the way it seemed
B                F#             C#
Disappointment haunted all my dreams

                       F# B F#
And then I saw her face
     B      F#     B F#
Now I'm a believer
B       F#   B  F#      B          F#    B   F#
Not a trace        of doubt in my mind
B       F#    B
I'm in love
        F#
I'm a believer
            E
I couldn't leave her if I tried…

    C#
E|--------------------------------------------------
B|--------------------------------------------------
G|--------------------------------------------------
D|-------2------2------2------2---------------------
A|---2h4----2h4----2h4----2h4----2h4p2p0------------
E|--------------------------------------------------

F#                   C#            F#         F#
I thought love was more or less a giving thing
  F#               C#                F#   F#
More I gave the less I've got, oh yeah
B                     F#     B                 F#
  What's the use in trying, all you get is pain
B                F#             C#
  When I wanted sunshine I got rain

                       F# B F#
And then I saw her face
     B      F#     B F#
Now I'm a believer
B       F#   B  F#      B          F#    B   F#
Not a trace        of doubt in my mind
B       F#    B
I'm in love
        F#
I'm a believer
            E
I couldn't leave her if I tried…

    C#
E|--------------------------------------------------
B|--------------------------------------------------
G|--------------------------------------------------
D|-------2------2------2------2---------------------
A|---2h4----2h4----2h4----2h4----2h4p2p0------------
E|--------------------------------------------------

Solo: F# C# F# F# (2x)

E|----------------------------------------------
B|----------------------------------------------
G|----------------------------------------------
D|----2-3-4-4-4-2------2-3-4-4-4-2------2-3-4/--
A|--4-------------4--4-------------4--4---------
E|----------------------------------------------

E|----------------------------------------------
B|----------------------------------------------
G|---------------------------2------------------
D|----2-3-4-4-4-2------2-3-4---4-3-2-2----------
A|--4-------------4--4-----------------4-3-2----
E|----------------------------------------------

B                     F#     B                 F#
  What's the use in trying, all you get is pain
B                F#             C#
  When I wanted sunshine I got rain

                       F# B F#
And then I saw her face
     B      F#     B F#
Now I'm a believer
B       F#   B  F#      B          F#    B   F#
Not a trace        of doubt in my mind
B       F#    B
I'm in love
        F#
I'm a believer
            E
I couldn't leave her if I tried…

    C#
E|--------------------------------------------------
B|--------------------------------------------------
G|--------------------------------------------------
D|-------2------2------2------2---------------------
A|---2h4----2h4----2h4----2h4-----------------------
E|--------------------------------------------------

    C#
E|--------------------------------------------------
B|--------------------------------------------------
G|--------------------------------------------------
D|-------2------2------2------2---------------------
A|---2h4----2h4----2h4----2h4-----------------------
E|--------------------------------------------------

    C#
E|--------------------------------------------------
B|--------------------------------------------------
G|--------------------------------------------------
D|-------2------2------2------2---------------------
A|---2h4----2h4----2h4----2h4----2h4p2p0------------
E|--------------------------------------------------

                       F# B F#
And then I saw her face
     B      F#     B F#
Now I'm a believer
B       F#   B  F#      B          F#    B   F# B
Not a trace        of doubt in my mind
              F#
Now, I'm a believer, yeah yeah yeah
B                   F# B F#
Yeah, yeah, yeah...
     B      F#     B F#
Now I'm a believer
            B         F# B F# B F# B F#
And then I saw her face
     B      F#     B F# B F# B F#
Now I'm a believer
B       F#  B F# B F# B F#     B           F#    B   F#
Not a trace                of doubt in my mind
     B      F#     B F#
Now I'm a believer
Composição de Neil Diamond
Colaboração e revisão:
  • Felipe
  • Diego
79.715 exibições
  • Simplificar cifra
    • ½ Tom
    • A
    • Bb
    • B
    • C
    • Db
    • D
    • Eb
    • E
    • F
    • F#
    • G
    • Ab
  • Adicionar à lista

    0 comentários

    Ver todos os comentários

    Conseguiu tocar?

    13 Tocaram 0 Ainda não

    Grave um vídeo tocando I'm A Believer e nos envie!

    00:00 / 00:00
    outros vídeos desta música
    repetir qualidade Automático
    Outros vídeos desta música
    00:00 / 00:00
    Automático

    Cifra Club Pro

    Aproveite o Cifra Club com benefícios exclusivos e sem anúncios
    Cifra Club Pro
    Aproveite o Cifra Club com benefícios exclusivos e sem anúncios
    OK