Cifra Club

Prophecy

Soulfly

Cifra: Versão 2 (violão e guitarra)
tom: F
Tabbed by: Tom_Morello_jr
Email:

Tuning:  B tuning  (B E A D F# b)

 * open whammy
 + close whammy
 ^ gradually close whammy

Riff #1  (intro)   --use whammy 1 octave up and about 2 sec delay--

   +  *  +  *  +* ^    
|-----------------20---|
|----------------------|
|--7--------------17---|
|----------------------|
|----------------------|
|----------------------|

Riff #2  (verse)

|----------------|
|----------------|
|----------------|
|----------------|
|--2--2-22-22--3-|
|--0--0-00-00--1-|

Riff #3  (chorus)

|----------------------|
|----------------------|
|----------------------|
|----------------------|
|--2--2--2--6--6--6p5--|
|--0--0--0--4--4--4p3--|

riff #4  (bridge)

|---------------------|
|---------------------|
|---------------------|
|---------------------|
|--2-2-2-2-2-2--------|
|--0-0-0-0-0-0--------|

Riff #5  (little solo)

|----------6---------------|
|-6--7-6-7---7---6--7-6-7--|
|--------------------------|
|--------------------------|
|--------------------------|
|--------------------------|

The latest riffs are only in B chord, so check out for the rythm listening from the song

 /  slide up
 \  slide down
 h  hammer-on
 p  pull-off
 ~  vibrato
 +  harmonic
 x  Mute note
============================================================================
00:00 / 00:00
Outros vídeos desta música
Repetir
Outros vídeos desta música
Composição de Max Cavalera
236 exibições
    • ½ Tom
    • A
    • Bb
    • B
    • C
    • Db
    • D
    • Eb
    • E
    • F
    • F#
    • G
    • Ab
  • Adicionar à lista

    0 comentários

    Ver todos os comentários

    Entre para oCifra Club PRO

    Tenha acesso a benefícios exclusivos no App e no Site

    • Chega de anúncios

    • Prioridade de compra em lançamentos

    • Mais recursos no app do Afinador

    • Atendimento Prioritário

    • Descontos nos produtos Cifra Club

    • Ajude a produzir mais conteúdo

    00:00 / 00:00

    Cifra Club Pro

    Aproveite o Cifra Club com benefícios exclusivos e sem anúncios
    Cifra Club Pro
    Aproveite o Cifra Club com benefícios exclusivos e sem anúncios
    OK