Cifra Club

Stonehenge Solo

Spinal Tap

Cifra: Principal (violão e guitarra)
tom: D
Tabbed by: Eddy Hitler (Gary)
Email: T*

this is the little solo type thing in Stonehenge. theres other versions of this up, 
this but with chords, so ive left them out. this took me a while to work out , so please let 
know what you think, rate it *

Tuning: Standard


                  "Part 1”
e|-------------||-----------------5-5----10-9-10-12-10-----7-8-8-10-8-7-------|
B|-------------||--------5-7-7-8-----------------------10---------------10----|
G|--7--7--7--7-||-----7-------------------------------------------------------|
D|-------------||-------------------------------------------------------------|
A|-------------||-------------------------------------------------------------|
E|-------------||-------------------------------------------------------------|

e|--7-8-7-8-10-12-|----------------5-5--10-9-10-12-10----7--8--10-8-7—-5h7p5--|
B|----------------|------5-5h7-7-8--------------------10----------------------|
G|----------------|---7-------------------------------------------------------|
D|----------------|-----------------------------------------------------------|
A|----------------|-----------------------------------------------------------|
E|----------------|-----------------------------------------------------------|
                               "Part 2”
e|----------------------|-
Compositor não encontrado.
397 exibições
    • ½ Tom
    • A
    • Bb
    • B
    • C
    • Db
    • D
    • Eb
    • E
    • F
    • F#
    • G
    • Ab
  • Adicionar à lista

    0 comentários

    Ver todos os comentários

    Conseguiu tocar?

    0 Tocaram 0 Ainda não

    Grave um vídeo tocando Stonehenge Solo e nos envie!

    00:00 / 00:00
    Outros vídeos desta música
    Repetir Qualidade Automático
    Outros vídeos desta música
    00:00 / 00:00
    Automático

    Cifra Club Pro

    Aproveite o Cifra Club com benefícios exclusivos e sem anúncios
    Cifra Club Pro
    Aproveite o Cifra Club com benefícios exclusivos e sem anúncios
    OK