Cifra Club

Beginning Of The End

Spineshank

Tab de baixo: Principal
exibições 396
Tabbed By : JIBerish

Tuning: A# F A# D

Intro:
|---------------------------------------------------------------------------|
|---------------------------------------------------------------------------|
|----------------------3-3-3-5-5-5-5-5----8-8-8-8-8-8-8-8----3-3-3-5-5-5-5--|
|-0-0-0-0-0-0-0-0-0---------------------------------------------------------| x2


Verse:
|---------------------|
|---------------------|
|-5-------------------|
|------5----3----0----|

|----------------------|-----------------------|----------------------|------------------------|
|----------------------|-----------------------|----------------------|------------------------|
|----------------------|-----------------------|----------------------|------------------------|
|-1-0-0--0-1-0-0-0--0--|--1-0-0--0-1-0-0-0--3--|--5--5-5-5--5-5-5--5--|--5--5-5-5-5--5-5-5--5--|

|--------------------|----------------------|----------------------|-----------------------|
|--------------------|----------------------|----------------------|-----------------------|
|--------------------|----------------------|----------------------|-----------------------|
|-3--3-3-3--3-3-3--3-|--3--3-3-3--3-3-3--5--|-1-0-0--0-1-0-0-0--0--|--1-0-0--0-1-0-0-0--3--|


Chorus:
|---------------------------------------------------------------------------|
|---------------------------------------------------------------------------|
|----------------------3-3-3-5-5-5-5-5----8-8-8-8-8-8-8-8----3-3-3-5-5-5-5--|
|-0-0-0-0-0-0-0-0-0---------------------------------------------------------| x2

|-----------------|------------------------|-----------------|-----------------------|
|-----------------|------------------------|-----------------|-----------------------|
|-----------------|------------------------|-----------------|-----------------------|
|-1-0-0--0-1-0-0--|--1-0-0-0--1-0-0---12/--|-1-0-0--0-1-0-0--|--1-0-0--0-1-0-0-0--3--|


   -Verse


   -Chorus (first bit only) x2



Interlude:
|-------------------|--------------------|------------------|-------------------|
|-------------------|--------------------|------------------|-------------------|
|-------------------|--------------------|------------------|-------------------|
|-0-0-0--0-0-0-0-0--|--3-3-3--3-3-3-3-3--|-5-5-5-5-5-5-5-5--|--8-8-8-8-8-8-7-7--|x2

|----|
|----|
|----|
|-0--|


    -Rest

|-----------------|------------------------|-----------------|-----------------------|
|-----------------|------------------------|-----------------|-----------------------|
|-----------------|------------------------|-----------------|-----------------------|
|-1-0-0--0-1-0-0--|--1-0-0-0--1-0-0---12/--|-1-0-0--0-1-0-0--|--1-0-0--0-1-0-0-0--3--|


    -Chorus (first bit only) x4


|---------------|
|---------------|
|---------------|
|-0-(let ring)--|

===============================================================================

0 comentários

mostrar mais comentários

Conseguiu tocar?

0 tocaram 0 ainda não

Grave um vídeo tocando Beginning Of The End e mande pra gente!

00:00 / 00:00
outros vídeos desta música
repetir qualidade Automático
Outros vídeos desta música
00:00 / 00:00
Automático
OK