Cifra Club

She Belongs To The Rain

Steinar Albrigtsen

Cifra: Principal (violão e guitarra)
tom: C
C   Dm   G   C   Dm   G   C 
INTRO 
 
 
 
C                   Dm 
She reminds me of November, 
G                         C 
 In the steel-blue in her eyes. 
                       Dm 
It's her soul I will remember, 
G                        C 
 Wise and ancient as the skies. 
 
 
 
C                         Dm 
She's a traveller she's a gypsy, 
G                           C 
 Passin' through and movin' on. 
                        Dm 
And I knew when she was with me, 
G                          C 
 She's no singer she's the song. 
 
 
 
      C   
She belongs to the rain, 
      Cmaj7 
She belongs to the wind, 
      F                             G 
She belongs to the storm blowin' in. 
      C 
She belongs to the stars, 
      Cmaj7  
She belongs to the sea, 
      F                   G         
She belongs to the deepest of all mysteries. 
 
 
 
C   Dm   G   C  Csus  C 
INSTRUMENTAL 
 
 
 
C                   Dm                 
I can see her in my memories, 
G                       C 
 Staring out across the bay. 
                        Dm  
Like a restless seagull ready, 
G                    C 
 To rise up and fly away. 
 
 
 
                        Dm 
And the time we spent together 
G                C  
 Was a magical romance 
                   Dm   
I was fortunate to know her  
G                      C               
 Not too many get that chance 
 
 
 
      C   
She belongs to the rain, 
      Cmaj7 
She belongs to the wind, 
      F                             G 
She belongs to the storm blowin' in. 
      C 
She belongs to the stars, 
      Cmaj7  
She belongs to the sea, 
      F                   G         
She belongs to the deepest of all mysteries. 
 
      C   
She belongs to the rain, 
      Cmaj7 
She belongs to the wind, 
      F                             G 
She belongs to the storm blowin' in. 
      C 
She belongs to the stars, 
      Cmaj7  
She belongs to the sea, 
      F                   G         
She belongs to the deepest of all mysteries. 
 
 
C   Dm   G   C   Dm   G   C  
INSTRUMENTAL  (same picking as intro to fade) 
 
 
 
******************************************************************************** 
 
 
 
INTRO 
 
   
   C              Dm              G             C                   
 
E|---------3--1p0----------1----------------0h1--0-------------------0-1-1/3- 
B|--1---1----1-----3----3-------1--0---1-3-----------0------0-------1--3-3/5- 
G|----0---------------2-------2------0-----0-------0----------0-------------- 
D|---2---2--2------0-0-0-0-0-0-0----0---0-0-------2---2-2h3--3-3-2----------- 
A|--3--3---3-------------------------------------3--3---3--3-----3-3--------- 
E|---------------------------------3--3--3----------------------------------- 
 
          Dm             G             C 
 
E|---------1---1--------------------0-----------------------| 
B|----6\5---3----3----1---0--0h1-3---3--1---1------1--------| 
G|-----------2--2---2-------0------0------0----------0------| 
D|---5-----0--0--0-0-0-0---0------0------2---2-2h3--3-3-2---| 
A|--3-----------------------------------3--3---3--3-----3---| 
E|------------------------3-----3---------------------------| 
 
 
 
 
VERSE (repeat similar through verse) 
 
   
   C              Dm              G             C                   
 
E|---------3--1p0----------1----------------0h1--0------3--1p0--| 
B|--1---1----1-----3----3-------1--0---1-3-----------1----1-----| 
G|----0---------------2-------2------0-----0-------0------------| 
D|---2---2--2------0-0-0-0-0-0-0----0---0-0-------2---2--2------| 
A|--3--3---3-------------------------------------3--3---3-------| 
E|---------------------------------3--3--3----------------------| 
 
 
 
CHORUS (repeat as necessary) 
This isn't exactly whats played, but it sounds ok. 
 
 
   C            Cmaj7         F              G     
  
E|------3------------3-------------1------1----------------| 
B|-----5-5-----5----5-5-----5-----1-1-1--1-1-----0--1--3---| 
G|----5---5---5----4---4---4-----2---2--2--------0--0--0---| 
D|---5-----5-5----5-----5-5-----3------3--------0----------| 
A|--3-------3----3-------3-----3---------------2-----------| 
E|--------------------------------------------3------------|
00:00 / 00:00
Outros vídeos desta música
Repetir
Outros vídeos desta música
Compositor não encontrado.
451 exibições
    • ½ Tom
    • A
    • Bb
    • B
    • C
    • Db
    • D
    • Eb
    • E
    • F
    • F#
    • G
    • Ab
  • Adicionar à lista

    0 comentários

    Ver todos os comentários

    Entre para oCifra Club PRO

    Tenha acesso a benefícios exclusivos no App e no Site

    • Chega de anúncios

    • Prioridade de compra em lançamentos

    • Mais recursos no app do Afinador

    • Atendimento Prioritário

    • Descontos nos produtos Cifra Club

    • Ajude a produzir mais conteúdo

    00:00 / 00:00

    Cifra Club Pro

    Aproveite o Cifra Club com benefícios exclusivos e sem anúncios
    Cifra Club Pro
    Aproveite o Cifra Club com benefícios exclusivos e sem anúncios
    OK