Cifra Club

With Me

Sum 41

Tab de baixo: Principal
Intro 
G|--------------------------|
D|--22~~--------------------|
A|-------22~~--44~~--00~~---|
E|--------------------------|x2

Verso
G|---------------------------|
D|--22~~---------------------|
A|-------22~~--44~~--00~~----|
E|---------------------------|x5

Refrão
G|------------------------------------------------------------------------------|
D|------------------------------------------------------------------------------|
A|--444444444444-----------------------222222-333333-444444444444---------------|
E|---------------55555555-000000000000----------------------------555555555555--|

G|------------------------------------------------------|
D|------------------------------------------------------|
A|---------------222222-333333-444444444444-------------|
E|--000000000000----------------------------55555555-0~-|x1

Pré Verso
G|------------------------------------------|
D|--22-2-22~--------------------------------|
A|-----------22-2-22~--44-4-44~--00-0-00~---|
E|------------------------------------------|x1

Verso
G|------------------------------------------|
D|--22-2-22~--------------------------------|
A|-----------22-2-22~--44-4-44~--00-0-00~---|
E|------------------------------------------|x4

Pré-Refrão
G|--------------------------------------|
D|--------------------------------------|
A|--44444444-00000000----------22222222-|
E|--------------------00000000----------|x1

Refrão
G|------------------------------------------------------------------------------|
D|------------------------------------------------------------------------------|
A|--444444444444-----------------------222222-333333-444444444444---------------|
E|---------------55555555-000000000000----------------------------555555555555--|

G|------------------------------------------------------|
D|------------------------------------------------------|
A|---------------222222-333333-444444444444-------------|
E|--000000000000----------------------------55555555-0--|x1

Ponte
G|--------------------------------------------------|\
D|--------------------------------------------------| \
A|--------------------22-2-22---4444444---22222222--|  \
E|--55-5-55--00-0-00--------------------------------|   \
(continua)                                              x2
G|--------------------------------------------------|   /
D|--------------------------------------------------|  /
A|--------------------22222222--44444444--22222222--| /
E|--55555555-00000000-------------------------------|/

Verso
G|------------|
D|-SEM--BAIXO-|
A|------------|
E|------------|

Refrão
G|------------------------------------------------------------------------------|
D|------------------------------------------------------------------------------|
A|--444444444444-----------------------222222-333333-444444444444---------------|
E|---------------55555555-000000000000----------------------------555555555555--|
(continua)
G|----------------------------------------------------------------------------------|
D|----------------------------------------------------------------------------------|
A|---------------222222-333333-444444444444--------------444444444444---------------|
E|--000000000000----------------------------555555555555--------------555555555555--|
(continua)
G|-----------------------------------------------------------------------------------|
D|-----------------------------------------------------------------------------------|
A|---------------222222-333333-444444444444---------------------------222222-333333--|
E|--000000000000----------------------------555555555555-000000000000----------------|
(continua)
G|-------------------------------|
D|-------------------------------|
A|--444444444444-----------------|
E|---------------555555555555----|

Termina em:
G|------|
D|------|
A|------|
E|-0~~~-|

Piano Part tabbed just 4 funs

(Guitar) 
E|-14-14-11(11)----14-14-11(11)----14-14-11(11)----14-14-11(11)----14-14-11(11)--------|
B|-------------14--------------12--------------14--------------12--------------14--12~~|
G|-------------------------------------------------------------------------------------|
D|-------------------------------------------------------------------------------------|
A|-------------------------------------------------------------------------------------|
E|-------------------------------

 Se quiser mandar essa parte no baixo faça:

D|-16-16-13(13)----16-16-13(13)----16-16-13(13)----16-16-13(13)----16-16-13(13)--------|
A|-------------16--------------14--------------16--------------14--------------16--14~~|
exibições 2.414
Composição: Sum 41 Colaboração e revisão:
  • Alexander

0 comentários

mostrar mais comentários

Conseguiu tocar?

2 tocaram 0 ainda não

Grave um vídeo tocando With Me e mande pra gente!

00:00 / 00:00
outros vídeos desta música
repetir qualidade Automático
Outros vídeos desta música
00:00 / 00:00
Automático
OK