Notificações Amigos pendentes

      Sum 41

      With Me

      178.127 exibições
      Tom: E
      Intro 2x: E5  B5  C#m  A5
      
      Riff 2x:
      
      
      E|--------------0----------------0----------|
      B|------------------------------------------|
      G|--------4----------------4--------4-------|
      D|--2--2-----2------------------------------|
      A|-------------------2--2-----2-------------|
      E|------------------------------------------|
      
      
      E|--------------0----------------------------|
      B|-------------------------------4--5--------|
      G|--------4----------------4-----------4-----|
      D|-------------------------------------------|
      A|--4--4-----4-------0--0-----0--------------|
      E|-------------------------------------------|
      
      
      E5                     B5
          i don't want this moment
      C#m           A5
            to ever end
      E5                      B5
          where everything's nothing
          C#m A5
      without you
      E5                    B5
          i'd wait here forever just to
      C#m        A5
      to see you smile
                 E5
      cause it's true
           B5           C#m A5
      i am nothing without you
      
                 C#m
      through it all
                      A5
      i've made my mistakes
                    E5
      i stumble and fall
                       B5
      but i mean these words
      
                    C#m
      I want you to know
           A5                           E5
      with everything i won't let this go
      B5                           C#m
      these words are my heart and soul
                A5                     E5
      i'll hold on to this moment you know
            B5                         C#m
      cause i'd bleed my heart out to show
             A5
      that i won't let go
      
      
      E|------------------------------------------------------|
      B|------------------------------------------------------|
      G|--9-9-9-9-9-------------------------------------------| 2x
      D|--x-x-x-x-x-------------------------------------------|
      A|--7-7-7-7-7-------------------------------------------|
      E|------------------------------------------------------|
      
      
      > A Intro é Executada novamente só que nesse padrão:
      
      
      E|--------------------------------------------------------------|
      B|--------------------------------------------------------------|
      G|-9-9-9-9-9-xxxx-9-9-9-9-9-xxxx-9-9-9-9-9-xxxx-9-9-9-9-9-xxxx--| 2x
      D|-9-9-9-9-9-xxxx-9-9-9-9-9-xxxx-9-9-9-9-9-xxxx-9-9-9-9-9-xxxx--|
      A|-7-7-7-7-7-xxxx-x-x-x-x-x-xxxx-x-x-x-x-x-xxxx-0-0-0-0-0-xxxx--|
      E|-0-0-0-0-0-xxxx-7-7-7-7-7-xxxx-9-9-9-9-9-xxxx-x-x-x-x-x-xxxx--|
      
      
      
      E5                      B5
          thoughts read are spoken
      C#m               A5
            forever and now
      E5                 B5
          and pieces of memories
           C#m    A5
      fall to the ground
      E5                 B5
          i know that i didn't have so
      C#m                 A5
         i won't let this go
                 E5
      cause it's true
           B5           C#m A5
      i am nothing without you
      
                C#m (P.M)
      all the streets
                      A5 (P.M)
      where i walked alone
                      E5 (P.M)
      with nowhere to go
                      B5 (P.M)
      i've come to an end
      
                    C#m
      I want you to know
           A5                           E5
      with everything i won't let this go
      B5                            C#m
      these words are my heart and soul
                A5                     E5
      i'll hold on to this moment you know
            B5                         C#m
      cause i'd bleed my heart out to show
             A5
      that i won't let go.
      
      Bridge:
      
      Guitar 1
      
      E|-------------0----------------0-----------------------|
      B|------------------------------------------------------|
      G|-------4----------------4-----------------------------|
      D|-2--2-----2-----2--2-------2--------------------------| 2x
      A|------------------------------------------------------|
      E|------------------------------------------------------|
      
      
      Guitar 2
      
      E|------------------------------------------------------|
      B|------------------------------------------------------|
      G|--9-9-9-9-9-------------------------------------------| 2x
      D|--x-x-x-x-x-------------------------------------------|
      A|--7-7-7-7-7-------------------------------------------|
      E|------------------------------------------------------|
      
      
      
      A5                   E5
          in front of your eyes
                         B5
      it falls from the skies
                      C#m
      When you don't know
                  B5          A5
      What you're looking to find
      
                       E5
      in front of your eyes
                         B5
      it falls from the skies
                    C#m
      When you just never know
      B5             A5
      what you will find
      
      Base solo:
      
      (E5  B5  C#m  B5)
      (A5  E5  B5  C#m  B5)
      (E5  B5  C#m  A5)
      (E5)
      
      Solo:
      
      
      E|--------------------------------------------------------------------|    Obs 3: O 1 na tab é na verdade 11
      B|--------------------------------------------------------------------|             x                     x
      G|--99999899999999999899991188888888881113131313131311131311----------| 4x          9                     9
      D|--xxxxxxxxxxxxxxxxxxxxxxxxxxxxxxxxxxxxxxxxxxxxxxxxxxxxxxxx----------|
      A|--77777677777777777677779966666666669911111111111199111199----------|
      E|--------------------------------------------------------------------|
      
      
                           B5
          i don't want this moment
      C#m           A5
            to ever end
      E5                      B5
          where everything's nothing
          C#m A5
      without you
      
                    C#m
      I want you to know
           A5                           E5
      with everything i won't let this go
      B5                            C#m
      these words are my heart and soul
                A5                     E5
      i'll hold on to this moment you know
            B5                         C#m
      cause i'd bleed my heart out to show
             A5
      that i won't let go
      
                    C#m
      I want you to know
           A5                           E5
      with everything i won't let this go
      B5                            C#m
      these words are my heart and soul
                A5                     E5
      i'll hold on to this moment you know
            B5                         C#m
      cause i'd bleed my heart out to show
             A5         E5
      that i won't let go...
        Composição: Sum 41Colaboração e revisão:
        • lucaseduardo.schmitz
        • hopt
        • vidal_182
        • Ruan 41
        • +2

        Comentários 15

        140 .
        • joao joao: Em 25/09/2016 - 20:58

          Musica show demais!

        • lucaseduardo.schmitz lucaseduardo.schmitz: Em 02/01/2015 22:11

          essa música é perfeita dmais

        • Caio Caio: Em 26/12/2013 11:27

          Mt legal e facil essa musica..

        • Tassany Tassany: Em 16/03/2013 16:50

          o ritmo eu conseguir fazendo: bcbc bbb

        • 100piedade 100piedade: Em 10/11/2012 13:13

          baixem a tablatura do guitar pro, bem melhor !

        • marques44 marques44: Em 12/07/2012 18:28

          essa musica é bem facinha ^^

        • luk_sk8 luk_sk8: Em 13/04/2012 21:01

          Vídeo aula!!! As melhores como blink, sum etc não tem videos!!!! puff '-'

        • dricoxd dricoxd: Em 12/02/2012 22:47

          musica bem bacana,espero q tds consigam tocar ^^um abraço a todos...

        • tuuhzenho tuuhzenho: Em 22/12/2011 11:17

          qual é a batida ?

        • thay182 thay182: Em 18/11/2011 20:10

          eu consegui tocar tentei fazer como o hopt falouu fico legal tbm ! musica e facil e legal pra quem ta aprendendo

        140 cancelar

        conseguiu tocar?

        • •••

        covers

        Grave um vídeo tocando With Me e mande pra gente!

        Ex.: http://www.youtube.com/watch?v=0IvSvIwGdwk
        ver covers de outras músicas »
        0:00 / 0:00

        Capítulos

          2 versões de violão dificuldade exibições contribuição e correção
          2 versões de guitarra dificuldade exibições contribuição e correção
          2 versões de cavaco dificuldade exibições contribuição e correção
          2 versões de teclado dificuldade exibições contribuição e correção
          1 versão de baixo exibições contribuição e correção
          1 versão de Guitar Proformatodownloadscontribuição
          play/pausefechar subir/descer velocidade
          6ª corda E5ª corda A4ª corda D3ª corda G2ª corda B1ª corda E
            acordes
            publicidade
            fechar
            ok