Cifra Club

Stay With Me

Sungha Jung

Cifra: Principal (violão e guitarra)
tom: D
Afinação: F A D G B E


[Intro]

E|-----0--------------------------------||
B|-----1----------1---------1-----------||
G|-----2----------2---------0-----------||
D|-----2----------3-----x---2-----------||  x2
A|-----0----------3-----x---3-----------||
F|--------------------------------------||
       D


[Verse 1]

E|-------------------0-------------0-------------0-----------------|
B|-----------1h3-----------1h3-----------1h3-----------1-----1-----|
G|-----------2-----------------------------------------------0-----|
D|-----------2-----------------------------------------------2-----|
A|-----0-----------------------------------------------------3-----|
F|---------------------------------0-------------------------------|

E|-------------------0-------------0-------------0-----3p0-----0-----|
B|-----------1h3-----------1h3-----------1h3-------------------1-----|
G|-----------2-------------------------------------------------0-----|
D|-----------2-------------------------------------------------------|
A|-----0-------------------------------------------------------3-----|
F|---------------------------------0---------------------------------|

E|-----------3/5---3---0-------------------------------------|
B|-------------------------3---3-----1-----------------------|
G|-----------------------------------------2-----------------|
D|-----------------------------------------------3-----2-----|
A|-----0-----------------------------------------------3-----|
F|-----------------------------0-----------------------------|

E|-------------------0-------------0-------------0-----------------|
B|-----------1h3-----------1h3-----------1h3-----------1-----1-----|
G|-----------2-----------------------------------------------0-----|
D|-----------2-----------------------------------------------2-----|
A|-----0-----------------------------------------------------3-----|
F|---------------------------------0-------------------------------|


[Chorus]

E|---0---3---(3)----5-------3-------0---(0)---------------0--------------------------|
B|--------------------------------------------1---3---------------1-------1---(1)----|
G|-----------------------------------------------------------------------------------|
D|------------------------------x-------------------------------------x--------------|
A|------------0-----------------x---3-----------------0---------------x---3----------|
F|----------------------0-------------------------------------0----------------------|

E|---0---3----3/5-----7---5---3---0---(0)-----------------------------0-------------------|
B|------------------------------------------3---1---(1)---1---3---------------1-------1---|
G|----------------------------------------------------------------------------------------|
D|--------------------------------------------------------------------------------x-------|
A|------------0-------------------3-------------------------------0---------------x---3---|
F|------------------------0-------------------------------2---------------0---------------|


[Verse 2]

E|----------------0---------0-------------------------------|
B|----------1h3-------1h3-------1---1--(1)---------(1)------|
G|---2------------------------------0-----------------------|
D|---2------------x---------x-------2-----------------------|
A|---0------------x---------x-------3-------3---3-------3---|
F|-------x--------0-----------------x---x---x-------x-------|

E|-------------0---------0---------0---3p0---0---(0)------------------|
B|-------1h3-------3p1-------1h3-------------1---(1)---------(1)------|
G|-------2-----------------------------------0------------------------|
D|-------2------------------------------------------------------------|
A|---0-------------------x---------x---------3--------3---3-------3---|
F|---x---------x---------0-------------------x----x---x-------x-------|

E|-------6/8---7---5---3h5p3\1---1---3p1p0----------------------------------------|
B|--------------------------------------------------3p1---(1)---------(1)---------|
G|--------------------------------------------------------------------------------|
D|--------------------------------------------------------------------------------|
A|---0-----------------x------------------------3--------------3---3-------2------|
F|---x---------x-------0-------------x----------x----------x---x-------x----------|

E|-------------0---------0---------0--------------------------------|
B|-------1h3-------1h3-------1h3-------1---1---(1)------------------|
G|-------2---------------------------------0------------------------|
D|-------2---------------x---------x-------2------------------------|
A|---0-------------------x---------x-------3--------3---3-----------|
F|---x---------x---------0-----------------x----x---x---------------|


[Chorus]

E|---0---3-------5-------3---x---0-------------------|
B|---------------------------x---1------(1)----------|
G|---------------------------x---0-------------------|
D|---------------------------x---2-------------------|
A|-----------0-------0-----------3---3-------3---3---|
F|---x-------x---x---x-------------------x---x-------|
                                  D
E|---------------0-----------x-----------------------|
B|---1---3-------1-------1-------1-------1-----------|
G|---------------2-------2-------0-------------------|
D|-----------------------3---x---2-------------------|
A|-----------0-------x-------x---3---3-------3---3---|
F|---x-------x---x---0-----------x-------x---x-------|

E|---0---3-------5-------7---5---3h5p3-------0----------------------|
B|-----------------------------------------------3p1---(1)----------|
G|---------------------------------------x--------------------------|
D|---------------------------------------x--------------------------|
A|-----------0---------------x-----------x---3--------------3---3---|
F|---x-------x-------x-------0---------------x----------x---x-------|

E|---------------0-----------x---------------------------|
B|---1---3-------1-------1-------1------(1)----------1---|
G|---------------2-------2-------0-----------------------|
D|-----------------------3---x---2-----------------------|
A|---x-------0-------x-------x---3---3-------3---3-------|
F|---2-------x---x---0-----------x-------x---x-----------|


[Interlude]

E|---0---3---5-------7---5---3h5p3-------0------(0)------------------ ||
B|-----------------------------------------------1---------------1--- ||
G|-----------------------------------x-------------------0---2------- ||
D|-----------------------------------x------------------------------- ||
A|-----------0---x-------x-----------x---3---3-------3--------------- ||
F|---x-------x---x-------0---------------x-------x---x-------x------- ||
                                                                      ||     X2
E|-----------------------------------------------0---3---             ||
B|---3-------3/5---3p1-------1------(1)------1-----------             ||
G|---2-----------------------0---------------------------             ||
D|---2-----------------------2---------------------------             ||
A|---0---x---------x-----x---3---3-------3---------------             ||
F|---x---x---------0-----x---x-------x---x-------x-------             ||


[Bridge]

E|--------/5-------3-------0---------------0-------------------|
B|-------------------------1-----1h3---------------1-------1---|
G|-------------------------0-----------------------2-------0---|
D|-------------------------------------------------3-------2---|
A|---0-----------------x---3-----------0---------------x---3---|
F|-------------0-------------------------------0---------------|

E|---0---3-------5---8---10b11r---10b11r---8---3-------0---------|
B|-------------------------------------------------0-------3p1---|
G|---------------------------------------------------------------|
D|---------------------------------------------------------------|
A|-----------0---------------------------------3-----------------|
F|-----------------------0-----------------------------2---------|

E|-----------0h1p0h1p0---------------------------------|
B|---1h3/5---------------3p1---1---1---1---1---1---1---|
G|---2-------------------------0---0---0---0---0---0---|
D|---2-------------------------2---2---2---2---2---2---|
A|---0-------------------------3---3---3---3---3---3---|
F|-----------0-----------------------------------------|
                               D   D   D   D   D   D

[Last chorus]

E|---0---3-------5-------3---x---0-------------------|
B|---1-----------------------x---1------(1)----------|
G|---0-----------------------x---0-------------------|
D|---2-----------------------x---2-------------------|
A|---3-------0-------x-----------3---3-------3---3---|
F|-----------x---x---0-------------------x---x-------|
      D                           D
E|---------------0-----------x---------------------------|
B|---1---3-------1-------1-------1------(1)--------------|
G|---------------2-------2-------0-----------------------|
D|-----------------------3---x---2-----------------------|
A|-----------0-------x-------x---3---3-------3---3-------|
F|---x-------x---x---0-----------x-------x---x-----------|

E|---0---3-------5-------7---5---3h5p3-------0---------------------|
B|-----------------------------------------------3p1--(1)----------|
G|---------------------------------------x-------------------------|
D|---------------------------------------x-------------------------|
A|-----------0-------x-------x-----------x---3-------------3---3---|
F|---x-------x-------x-------0---------------x---------x---x-------|

E|-------------------0------------------------------|
B|----1----3-------------------1--------------------|
G|--------------------------------------------------|
D|--------------------------------------------------|
A|----x---------0------------------------3----(3)---|
F|----2-------------------0---------0---------------|
00:00 / 00:00
Outros vídeos desta música
Repetir
Outros vídeos desta música
Compositor não encontrado.
Colaboração e revisão:
  • karoline paula
1.424 exibições
    • ½ Tom
    • A
    • Bb
    • B
    • C
    • Db
    • D
    • Eb
    • E
    • F
    • F#
    • G
    • Ab
  • Adicionar à lista

    0 comentários

    Ver todos os comentários

    Conseguiu tocar?

    0 Tocaram 0 Ainda não

    Grave um vídeo tocando Stay With Me e nos envie!

    Entre para oCifra Club PRO

    Tenha acesso a benefícios exclusivos no App e no Site

    • Chega de anúncios

    • Prioridade de compra em lançamentos

    • Mais recursos no app do Afinador

    • Atendimento Prioritário

    • Descontos nos produtos Cifra Club

    • Ajude a produzir mais conteúdo

    00:00 / 00:00

    Cifra Club Pro

    Aproveite o Cifra Club com benefícios exclusivos e sem anúncios
    Cifra Club Pro
    Aproveite o Cifra Club com benefícios exclusivos e sem anúncios
    OK