Enviar cifraEntrar

My Heart Will Go On

Sungha Jung

Cifra: Principal
exibições 41.489
Tom: F (com acordes na forma de D) Capotraste na 3ª casa
Capo: 3 Casa


D|-----------------|-5-----0-----7----------------|
A|-5/7-7/9---------|---9------7-------------------|
G|-----------------|-----9----6-------------------|
D|-----------------|----------7-------------------|
A|-----------------|----------0-------------------|
D|-----0-----------|------------------------------|


D|-5p4-0-----------|---------|
A|----------4------|---------|
G|-----------------|-2-------|
D|-----------------|---------|
A|-----------------|-0-------|
D|-----5-----------|---------|


D|-----------------|-5-----0-----7----------------|
A|-5/7-7/9---------|---9------7-------------------|
G|-----------------|-----9----6-------------------|
D|-----------------|----------7-------------------|
A|-----------------|----------0-------------------|
D|-----0-----------|------------------------------|


D|-4h7/9--7--------|---------|
A|-----------------|---7-----|
G|-----------------|---6-----|
D|-----------------|---7-----|
A|-----------------|---0-----|
D|-----5-----------|---------|


D|-0------0-0---0-------|---0--------0------------|
A|----------------------|-4-----------------------|
G|----------------------|-2--------2--------------|
D|-----4------4---0-----|--------2------0---------|
A|---0------------------|-0----0------------------|
D|-0--------------------|-------------------------|


D|---0---------2---|-4-----5p4--2-----------------|
A|-4---------------|-5----------4-----------------|
G|----------0------|-4----------0-----------------|
D|--------0--------|----0----------0--------------|
A|-----------------|-0----------0-----------------|
D|-5----5----------|------------------------------|


D|-0------0-0---0-------|---0--------0------------|
A|----------------------|-4-----------------------|
G|-2--------------------|-2--------2--------------|
D|-4---4------4---0-----|--------2------0---------|
A|---0------------------|-0----0------------------|
D|-0--------------------|-------------------------|


D|---------------0------|--------0-2---0h2p0----0-----|
A|-0-----------0--------|---0-----------------4-------|
G|-------0---0----------|-4---4-----------------------|
D|-----0---4------------|-----------------------------|
A|---2------------------|----------0------------------|
D|-5--------------------|-5---------------------------|


D|-0------0-0---0-------|---0-------0-----------------|
A|----------------------|-4---------------------------|
G|-----4----------------|-4-------2-------------------|
D|---4--------4---0-----|-------2------0--------------|
A|-2--------------------|-0---0-----------------------|
D|----------------------|-----------------------------|


D|---------------0------|---0----4-----0--------------|
A|-0-----------0--------|-----7----7------------------|
G|-------0---0----------|-6---------------------------|
D|-----0---4------------|------------0----------------|
A|---2------------------|-0------0--------------------|
D|-5--------------------|-----------------------------|


D|--------0-------------|-2---------------------------|
A|--------0----0--------|-4-----4------0--------------|
G|-----4--4-------------|-4---4-2p0-------------------|
D|---4----4--4---0------|---2--------2---0------------|
A|-2------2-------------|-0-----0---------------------|
D|----------------------|-----------------------------|


D|-7----5---------------|
A|-5--------9-7---------|
G|----------------------|
D|---5----5-------------|
A|----------------------|
D|-5--------------------|


D|---------4--5---------|-4-------2-------------------|
A|-------0--------------|-----2-------5---------------|
G|-----6----------------|-----------------------------|
D|---7----------0-------|---4---4---4---0-------------|
A|-0-------0------------|-2---------------------------|
D|----------------------|-----------------------------|


D|---0--------0---------|---------------0-------------|
A|-4--------------------|-0-----------0---------------|
G|-4--------2-----------|-------0---0-----------------|
D|--------2-----0-------|-----0---4-------------------|
A|-0----0---------------|---2-------------------------|
D|----------------------|-5---------------------------|


D|---------4--5---------|-4-------2-------------------|
A|-------0--------------|-----2-------5---------------|
G|-----6----------------|-----------------------------|
D|---7----------0-------|---4---4---4---0-------------|
A|-0-------0------------|-2---------------------------|
D|----------------------|-----------------------------|


D|---0--------0---------|----0--------2---------------|
A|-4--------------------|-4---------------------------|
G|---------2------------|-----------0-----------------|
D|-------4------0-------|---------0-------------------|
A|----------------------|-----------------------------|
D|-4---4----------------|-5-----5---------------------|


D|-4----5-4--2--0-------|-0---5-----0-----------------|
A|-5---------4----------|-------9---------------------|
G|-4---------0----------|---------9-------------------|
D|---0------------------|-----------------------------|
A|-0---------0----------|-----------------------------|
D|----------------------|-9---------------------------|


Agora desliza o capo pra 4 casa
           > Capo casa 4

D|-2--------2-----------|
A|-------0---------0----|
G|-----0---------0------|
D|---2---------2--------|
A|-0--------0-----------|
D|----------------------|


D|-4--------2-----------|---0-------------------------|
A|------2-------5-------|-4----------4----------------|
G|----------------------|----------2------------------|
D|---4----4---4---0-----|--------4------0-------------|
A|-2--------------------|-----------------------------|
D|----------------------|-4----4----------------------|


D|----0--------2--------|-4-----5-4--2--0-------------|
A|-4--------------------|-5----------4----------------|
G|-----------0----------|-4----------0----------------|
D|---------0------------|----0------------------------|
A|----------------------|-0----------0----------------|
D|-5-----5--------------|-----------------------------|


D|-0-----------0--------|-------------0---------------|
A|-0-----0--------------|-------0---------------------|
G|-----4---4------------|-----4---4-------------------|
D|---4-------4----------|---4-------4-----------------|
A|-2--------------------|-2---------------------------|
D|----------------------|-----------------------------|


D|----0h2p0----0--------------|----------------0------|
A|----------4-------0---------|-0------------0--------|
G|--------------------0-------|-------0----0----------|
D|----------------------------|-----0----4------------|
A|-0--------------0-----------|---2------0------------|
D|----------------------------|-5---------------------|


D|-----0---5---0--------------|-----5----0------------|
A|-------9---9---0------------|---9---9------0--------|
G|----------------------------|-9---------------------|
D|---0------------------------|------------0----------|
A|----------------------------|-0-----0---------------|
D|-9--------------------------|-----------------------|


D|----------------------------|-----------------------|
A|--------0-----0-------------|-----------------------|
G|------0-----0---------------|-----------------------|
D|----0-----4-----------------|-2--0h2p0---0-2/4/2----|
A|--2-------------------------|-0--------4---0--------|
D|-5--------------------------|-----------------------|


D|-----------0---0------------|------4----------------|
A|-------------4--------------|-0---------------------|
G|---------2------------------|-----------------------|
D|-0-----4--------------------|-----------------------|
A|-----0----------------------|-----------------------|
D|---0------------------------|---0-------------------|
  • 1
  • 2
  • 3
  • 4
  • 5
  • 6
  • 7
  • 8
  • 9
  • 10
  • 11
  • 12
    Acordes para:
      Composição: Celine DionColaboração e revisão:

      0 comentários

        mostrar mais comentários

        Conseguiu tocar?

        20tocaram0ainda não

        Grave um vídeo tocando My Heart Will Go On e mande pra gente!

        00:00 / 00:00
        outros vídeos desta música
        repetirqualidadeautomática
        • automática
        Outro vídeos desta música
          00:00 / 00:00
          automática
          • automática
          Acordes para:violão e guitarra
          dificuldadeexibiçõescontribuições
          1 versão de Guitar Proformatodownloadscontribuição
          fecharplay/pause subir/descer velocidade
            acordes
            fechar
            OK
            Feedback