Cifra Club

Aprenda

Chop Suey!

System Of a Down

Cifra: Principal (violão e guitarra)
tom: Am
Afinação Drop C: C G C F A D

[Intro] Am  Bm/A  G/A  F/A

(Parte 1)
   Am
E|---------------------------------------------------|
B|---------------------------------------------------|
G|-5--5-5-5-5--5-5-5-5--5----------------------------|
D|-7--7-7-7-7--7-7-7-7--7----------------------------|
A|-0--0-0-0-0--0-0-0-0--0----------------------------|
E|---------------------------------------------------|
     Bm/A
E|---------------------------------------------------|
B|---------------------------------------------------|
G|-5/7--7-7-7-7--7-7-7-7--7--------------------------|
D|-7/9--9-9-9-9--9-9-9-9--9--------------------------|
A|-0----0-0-0-0--0-0-0-0--0--------------------------|
E|---------------------------------------------------|
   G/A
E|---------------------------------------------------|
B|---------------------------------------------------|
G|-4--4-4-4-4--4-4-4-4--4----------------------------|
D|-5--5-5-5-5--5-5-5-5--5----------------------------|
A|-0--0-0-0-0--0-0-0-0--0----------------------------|
E|---------------------------------------------------|
   F/A
E|---------------------------------------------------|
B|---------------------------------------------------|
G|-2--2-2-2-2--2-2-2-2--2----------------------------|
D|-3--3-3-3-3--3-3-3-3--3----------------------------|
A|-0--0-0-0-0--0-0-0-0--0----------------------------|
E|---------------------------------------------------|

(Parte 2)
   PM
E|---------------------------------------------------|
B|---------------------------------------------------|
G|-5---5---5---7---7---7---4---4---4---2---2---2-----|
D|---7---7---7---9---9---9---5---5---5---3---3---3---|
A|---------------------------------------------------|
E|---------------------------------------------------|

(Parte 3)
   Am
E|---------------------------------------------------|
B|---------------------------------------------------|
G|-5--5-5-5-5--5-5-5-5--5----------------------------|
D|-7--7-7-7-7--7-7-7-7--7----------------------------|
A|---------------------------------------------------|
E|---------------------------------------------------|
     Bm/A
E|---------------------------------------------------|
B|---------------------------------------------------|
G|-5/7--7-7-7-7--7-7-7-7--7--------------------------|
D|-7/9--9-9-9-9--9-9-9-9--9--------------------------|
A|---------------------------------------------------|
E|---------------------------------------------------|
   G/A
E|---------------------------------------------------|
B|---------------------------------------------------|
G|-4--4-4-4-4--4-4-4-4--4----------------------------|
D|-5--5-5-5-5--5-5-5-5--5----------------------------|
A|---------------------------------------------------|
E|---------------------------------------------------|
   F/A
E|---------------------------------------------------|
B|---------------------------------------------------|
G|-2--2-2-2-2--2-2-2-2--2----------------------------|
D|-3--3-3-3-3--3-3-3-3--3----------------------------|
A|---------------------------------------------------|
E|---------------------------------------------------|
   Am
E|---------------------------------------------------|
B|---------------------------------------------------|
G|-5--5-5-5-5--5-5-5-5--5----------------------------|
D|-7--7-7-7-7--7-7-7-7--7----------------------------|
A|---------------------------------------------------|
E|---------------------------------------------------|
     Bm/A
E|---------------------------------------------------|
B|---------------------------------------------------|
G|-5/7--7-7-7-7--7-7-7-7--7--------------------------|
D|-7/9--9-9-9-9--9-9-9-9--9--------------------------|
A|---------------------------------------------------|
E|---------------------------------------------------|
   G/A
E|---------------------------------------------------|
B|---------------------------------------------------|
G|-4--4-4-4-4--4-4-4-4--4----------------------------|
D|-5--5-5-5-5--5-5-5-5--5----------------------------|
A|---------------------------------------------------|
E|---------------------------------------------------|
   F/A
E|---------------------------------------------------|
B|---------------------------------------------------|
G|-2--2--2--2--2--2--2--2----------------------------|
D|-3--3--3--3--3--3--3--3----------------------------|
A|---------------------------------------------------|
E|---------------------------------------------------|

(Parte 4 - 2x) Distorção Pesada
E|---------------------------------------------------|
B|---------------------------------------------------|
G|---------------------------------------------------|
D|---------------------------------------------------|
A|-8-7-8-7-8-7-8-7-7-6-7-6-7-6-7-6-10-9-10-9---------|
E|-8-7-8-7-8-7-8-7-7-6-7-6-7-6-7-6-10-9-10-9---------|

E|---------------------------------------------------|
B|---------------------------------------------------|
G|---------------------------------------------------|
D|---------------------------------------------------|
A|-10-9-10-9-12-11-12-11-12-11-12-11-----------------|
E|-10-9-10-9-12-11-12-11-12-11-12-11-----------------|

(Parte 5)
E|---------------------------------------------------|
B|---------------------------------------------------|
G|---------------------------------------------------|
D|---------------------------------------------------|
A|---------------------------------------------------|
E|-7-7-7-7-7-7-7-7-6-6-6-6-6-6-6-6-9-9-9-9-9-9-9-9---|

E|---------------------------------------------------|
B|---------------------------------------------------|
G|---------------------------------------------------|
D|---------------------------------------------------|
A|---------------------------------------------------|
E|-12-12-12-12-12-12-12-12---------------------------|

[Primeira Parte]

E|---------------------------------------------------|
B|---------------------------------------------------|
G|---------------------------------------------------|
D|---------------------------------------------------|
A|-8-7---8-7-8-7-8-7-8-7-8-6---7-6-7-6-7-6-7-6-8-7---|
E|-8-7---8-7-8-7-8-7-8-7-8-6---7-6-7-6-7-6-7-6-8-7---|

E|---------------------------------------------------|
B|---------------------------------------------------|
G|---------------------------------------------------| (2x)
D|---------------------------------------------------|
A|-8-7-8-7-8-7-8-7-8-6---7-6-7-6-7-6-7-6-7-----------|
E|-8-7-8-7-8-7-8-7-8-6---7-6-7-6-7-6-7-6-7-----------|

                         PM
E|---------------------------------------------------|
B|---------------------------------------------------|
G|---------------------------------------------------|
D|---------------------------------------------------|
A|-8-7-8-7-8-7-8-7-8-6---7--7--7--7------------------|
E|-8-7-8-7-8-7-8-7-8-6---7--7--7--7------------------|

Wake up (wake up)
Grab a brush and put a little makeup
Hide the scars to fade away the shake up
(Hide the scars to fade away the)
Why'd you leave the keys upon the table?
Here you go create another fable

You wanted to
Grab a brush and put a little makeup
You wanted to
Hide the scars to fade away the shake up
You wanted to
Why'd you leave the keys upon the table?
You wanted to
I don't think you

[Primeiro Refrão]

   PM
E|---------------------------------------------------|
B|---------------------------------------------------|
G|-------5--------------7--------------4-------------|
D|----7----7---7-----9----9---9-----5----5---5-------|
A|-0---------0----0---------0----0---------0---------|
E|---------------------------------------------------|

E|---------------------------------------------------|
B|---------------------------------------------------|
G|-------2--------------5--------------7-------------|
D|----3----3---3-----7----7---7-----9----9---9-------|
A|-0---------0----0---------0----0---------0---------|
E|---------------------------------------------------|

E|---------------------------------------------------|
B|---------------------------------------------------|
G|-------4--------------2----------------------------|
D|----5----5---5-----3-----3-------------------------|
A|-0---------0----0----------------------------------|
E|---------------------------------------------------|

  Am
Trust
 Bm/A  G/A  F/A               Am
 In   my   self righteous suicide
 Bm/A  G/A    F/A
 I   cry when angels deserve to
Die

[Distorção Pesada]

E|---------------------------------------------------|
B|---------------------------------------------------|
G|---------------------------------------------------|
D|---------------------------------------------------|
A|-8-7-8-7-8-7-8-7-7-6-7-6-7-6-7-6-10-9-10-9---------|
E|-8-7-8-7-8-7-8-7-7-6-7-6-7-6-7-6-10-9-10-9---------|

E|---------------------------------------------------|
B|---------------------------------------------------|
G|---------------------------------------------------|
D|---------------------------------------------------|
A|-10-9-10-9-12-11-12-11-12-11-12-11-----------------|
E|-10-9-10-9-12-11-12-11-12-11-12-11-----------------|

[Riff 1]

E|---------------------------------------------------|
B|---------------------------------------------------|
G|---------------------------------------------------|
D|---------------------------------------------------|
A|-8-7-8-7-8-7-8-7-8-7-8-7-8-7-8-7-------------------|
E|-8-7-8-7-8-7-8-7-8-7-8-7-8-7-8-7-------------------|
 (Ahh)

[Segunda Parte]

Wake up (wake up)
Grab a brush and put a little makeup
Hide the scars to fade away the
(Hide the scars to fade away the shake up)
Why'd you leave the keys upon the table?
Here you go create another fable

You wanted to
Grab a brush and put a little makeup
You wanted to
Hide the scars to fade away the shake up
You wanted to
Why'd you leave the keys upon the table?
You wanted to
I don't think you

[Segundo Refrão]

   PM
E|---------------------------------------------------|
B|---------------------------------------------------|
G|-------5--------------7--------------4-------------|
D|----7----7---7-----9----9---9-----5----5---5-------|
A|-0---------0----0---------0----0---------0---------|
E|---------------------------------------------------|

E|---------------------------------------------------|
B|---------------------------------------------------|
G|-------2--------------5--------------7-------------|
D|----3----3---3-----7----7---7-----9----9---9-------|
A|-0---------0----0---------0----0---------0---------|
E|---------------------------------------------------|

E|---------------------------------------------------|
B|---------------------------------------------------|
G|-------4--------------2----------------------------|
D|----5----5---5-----3----3---3----------------------|
A|-0---------0----0---------0------------------------|
E|---------------------------------------------------|

E|---------------------------------------------------|
B|---------------------------------------------------|
G|-------5--------------7--------------4-------------|
D|----7----7---7-----9----9---9-----5----5---5-------|
A|-0---------0----0---------0----0---------0---------|
E|---------------------------------------------------|

E|---------------------------------------------------|
B|---------------------------------------------------|
G|-------2--------------5--------------7-------------|
D|----3----3---3-----7----7---7-----9----9---9-------|
A|-0---------0----0---------0----0---------0---------|
E|---------------------------------------------------|

E|---------------------------------------------------|
B|---------------------------------------------------|
G|-------4--------------2----------------------------|
D|----5----5---5-----3--3----------------------------|
A|-0---------0----0-----x----------------------------|
E|----------------------3----------------------------|

  Am
Trust
 Bm/A  G/A  F/A               Am
 In   my   self righteous suicide
 Bm/A  G/A    F/A                Am
 I   cry when angels deserve to die
 Bm/A  G/A  F/A               Am
 In   my   self righteous suicide
 Bm/A  G/A    F/A
 I   cry when angels deserve to die!

[Distorção Pesada]

E|---------------------------------------------------|
B|---------------------------------------------------|
G|---------------------------------------------------|
D|---------------------------------------------------|
A|-8-7-8-7-8-7-8-7-7-6-7-6-7-6-7-6-10-9-10-9---------|
E|-8-7-8-7-8-7-8-7-7-6-7-6-7-6-7-6-10-9-10-9---------|

E|---------------------------------------------------|
B|---------------------------------------------------|
G|---------------------------------------------------|
D|---------------------------------------------------|
A|-10-9-10-9-12-11-12-11-12-11-12-11-----------------|
E|-10-9-10-9-12-11-12-11-12-11-12-11-----------------|

   PM
E|---------------------------------------------------|
B|---------------------------------------------------|
G|---------------------------------------------------|
D|---------------------------------------------------|
A|-8-7-8-7-8-7-8-7-7-6-7-6-7-6-7-6-10-9-10-9---------|
E|-8-7-8-7-8-7-8-7-7-6-7-6-7-6-7-6-10-9-10-9---------|

E|---------------------------------------------------|
B|---------------------------------------------------|
G|---------------------------------------------------|
D|---------------------------------------------------|
A|-10-9-10-9-12-11-12-11-12-11-12-11-----------------|
E|-10-9-10-9-12-11-12-11-12-11-12-11-----------------|

Father! (Father!)
Father! (Mother!)
Father! (Fuck You!)
Father!

E|---------------------------------------------------|
B|---------------------------------------------------|
G|---------------------------------------------------|
D|---------------------------------------------------|
A|---------------------------------------------------|
E|-7-7-7-7-7-7-7-7-6-6-6-6-6-6-6-6-9-9-9-9-9-9-9-9---|

E|---------------------------------------------------|
B|---------------------------------------------------|
G|---------------------------------------------------|
D|---------------------------------------------------|
A|---------------------------------------------------|
E|-12-12-12-12-12-12-12-12---------------------------|

Father, into your hands
I commend my spirit!
Father into your hands
Why have you

[Refrão Final]

    A5
Forsaken me?
F5                C5
In your eyes, forsaken me
F5                    A5
In your thoughts, forsaken me
F5                 C5    F5
In your heart, forsaken me

  A5  F5  C5  F5                A5
Trust in my  self righteous suicide
F5  C5     F5                 A5
I cry when angels deserve to die
F5  C5  F5                A5
In my  self righteous suicide
F5  C5     F5                 A5
I cry when angels deserve to die
Composição de Daron Malakian / Serj Tankian
1.407.957 exibições
    • ½ Tom
    • Am
    • Bbm
    • Bm
    • Cm
    • C#m
    • Dm
    • Ebm
    • Em
    • Fm
    • F#m
    • Gm
    • G#m
  • Adicionar à lista

    0 comentários

    Ver todos os comentários
    00:00 / 00:00
    Outros vídeos desta música
    Repetir Qualidade Automático
    Outros vídeos desta música
    00:00 / 00:00
    Automático
    Capítulos
    • Início
    • Afinação
    • Tocando a música
    • Acordes da Introdução
    • Tocando Introdução
    • Ensinando Introdução
    • Tocando Primeira Parte
    • Ensinando Primeira Parte
    • Tocando Primeiro Refrão
    • Ensinando Primeiro Refrão
    • Tocando Segunda Parte
    • Ensinando Riff
    • Tocando Segundo Refrão
    • Ensinando Segundo Refrão
    • Tocando Passagem
    • Ensinando Passagem com Palm-Muting
    • Tocando Refrão Final
    • Ensinando Refrão Final
    • Encerramento

    Cifra Club Pro

    Aproveite o Cifra Club com benefícios exclusivos e sem anúncios
    Cifra Club Pro
    Aproveite o Cifra Club com benefícios exclusivos e sem anúncios
    OK