Cifra Club

Aprenda

Chop Suey!

System Of a Down

Tab de baixo: Completa
G|-------------------------
D|-------------------------
A|-0-----------------------
E|-------------------------

G|-------------------------
D|-------------------------
A|-0--------------8--------
E|-------------------------

G|-------------------------
D|-------------------------
A|-3-----------------------
E|-----------------3-------

G|-------------------------
D|-------------------------
A|-0--------------8--------
E|-------------------------

G|-------------------------
D|-------------------------
A|-3-----------------------
E|------3-3-3-3-3-3-3-3-3--

G|-------------------------------
D|-------------------------------
A|-------------------------------
E|8-7-8-7-8-7-8-7-7-6-7-6-7-6-7-6

G|-------------------------------------------
D|-------------------------------------------
A|-------------------------------------------
E|10-9-10-9-10-9-10-9-12-10-12-10-12-10-12-10

G|-------------------------------
D|-------------------------------
A|-------------------------------
E|7-7-7-7-7-7-7-7-6-6-6-6-6-6-6-6

G|---------------------------------------
D|---------------------------------------
A|---------------------------------------
E|9-9-9-9-9-9-9-9-12-12-12-12-12-12-12-12

G|-----------------------------------------------------------
D|-----------------------------------------------------------
A|-----------------------------------------------------------
E|-8-7--|---8-7-8-7-8-7-8-7---7-6-|---7-6-7-6-7-6-7-6-7-6-7-6

G|-----------------------------------------------------------
D|-----------------------------------------------------------
A|-----------------------------------------------------------
E|-8-7--|---8-7-8-7-8-7-8-7---7-6-|---7-6-7-6-7-6-7-6-7-6-7-6

G|-----------------------------------------------------------
D|-----------------------------------------------------------
A|-----------------------------------------------------------
E|-8-7--|---8-7-8-7-8-7-8-7---7-6-|---7-6-7-6-7-6-7-6-7-6-7-6

G|-----------------------------------------------------------
D|-----------------------------------------------------------
A|-----------------------------------------------------------
E|-8-7--|---8-7-8-7-8-7-8-7---7-6-|---7-6-7-6-7-6-7-6-7-6-7-6

G|-------------------------
D|-------------------------
A|-0-----------------------
E|-------------------------

G|-------------------------
D|-------------------------
A|-------------------8-----
E|-------------------------

G|-------------------------
D|-------------------------
A|-3-----------------------
E|-------------------------

G|-------------------------
D|-------------------------
A|-------------------0-----
E|-3---------3----5--------

G|-------------------------
D|-------------------------
A|--8----------------------
E|-------------------------

G|-------------------------
D|--3----------------------
A|-------------------------
E|-------------------------

G|-------------------------
D|-------------------------
A|--3----------------------
E|-------------------------

G|-------------------------------
D|-------------------------------
A|-------------------------------
E|8-7-8-7-8-7-8-7-7-6-7-6-7-6-7-6

G|-------------------------------------------
D|-------------------------------------------
A|-------------------------------------------
E|10-9-10-9-10-9-10-9-12-10-12-10-12-10-12-10

G|-------------------------------
D|-------------------------------
A|-------------------------------
E|8-7-8-7-8-7-8-7-7-6-7-6-7-6-7-6

G|-------------------------------------------
D|-------------------------------------------
A|-------------------------------------------
E|10-9-10-9-10-9-10-9-12-10-12-10-12-10-12-10

G|-------------------------------
D|-------------------------------
A|-------------------------------
E|8-7-8-7-8-7-8-7-7-6-7-6-7-6-7-6

G|-----------------------------------------------------------
D|-----------------------------------------------------------
A|-----------------------------------------------------------
E|-8-7--|---8-7-8-7-8-7-8-7---7-6-|---7-6-7-6-7-6-7-6-7-6-7-6

G|-----------------------------------------------------------
D|-----------------------------------------------------------
A|-----------------------------------------------------------
E|-8-7--|---8-7-8-7-8-7-8-7---7-6-|---7-6-7-6-7-6-7-6-7-6-7-6

G|-----------------------------------------------------------
D|-----------------------------------------------------------
A|-----------------------------------------------------------
E|-8-7--|---8-7-8-7-8-7-8-7---7-6-|---7-6-7-6-7-6-7-6-7-6-7-6

G|-----------------------------------------------------------
D|-----------------------------------------------------------
A|-----------------------------------------------------------
E|-8-7--|---8-7-8-7-8-7-8-7---7-6-|---7-6-7-6-7-6-7-6-7-6-7-6

G|-------------------------
D|-------------------------
A|-0-----------------------
E|-------------------------

G|-------------------------
D|-------------------------
A|-------------------8-----
E|-------------------------

G|-------------------------
D|-------------------------
A|-3-----------------------
E|-------------------------

G|-------------------------
D|-------------------------
A|-------------------0-----
E|-3---------3----5--------

G|-------------------------
D|-------------------------
A|-0-----------------------
E|-------------------------

G|-------------------------
D|-------------------------
A|-------------------8-----
E|-------------------------

G|-------------------------
D|-------------------------
A|-3-----------------------
E|-------------------------

G|-------------------------
D|-------------------------
A|-------------------0-----
E|-3---------3----5--------

G|-------------------------
D|-------------------------
A|-0-----0-----0-0--0-0----
E|-------------------------

G|-------------------------
D|-------------------------
A|-8-----8-----8-8--8-8----
E|-------------------------

G|-------------------------
D|-------------------------
A|-3-----3------3-3--3-3---
E|-------------------------

G|-------------------------
D|-------------------------
A|-3-----3------3-3--5-5---
E|-------------------------

G|-------------------------
D|-------------------------
A|-0-----0-----0-0--0-0----
E|-------------------------

G|-------------------------
D|-------------------------
A|-8-----8-----8-8--8-8----
E|-------------------------

G|-------------------------
D|-------------------------
A|-3-----3------3-3--3-3-|-
E|-------------------------

G|-------------------------
D|-------------------------
A|-3-----------------------
E|-------------------------

G|-------------------------------
D|-------------------------------
A|-------------------------------
E|8-7-8-7-8-7-8-7-7-6-7-6-7-6-7-6

G|-------------------------------------------
D|-------------------------------------------
A|-------------------------------------------
E|10-9-10-9-10-9-10-9-12-10-12-10-12-10-12-10

G|-------------------------------
D|-------------------------------
A|-------------------------------
E|8-7-8-7-8-7-8-7-7-6-7-6-7-6-7-6

G|-------------------------------------------
D|-------------------------------------------
A|-------------------------------------------
E|10-9-10-9-10-9-10-9-12-10-12-10-12-10-12-10
G|-------------------------------
D|-------------------------------
A|-------------------------------
E|8-7-8-7-8-7-8-7-7-6-7-6-7-6-7-6

G|-------------------------------------------
D|-------------------------------------------
A|-------------------------------------------
E|10-9-10-9-10-9-10-9-12-10-12-10-12-10-12-10

G|-------------------------------
D|-------------------------------
A|-------------------------------
E|7-7-7-7-7-7-7-7-6-6-6-6-6-6-6-6

G|---------------------------------------
D|---------------------------------------
A|---------------------------------------
E|9-9-9-9-9-9-9-9-12-12-12-12-12-12-12-12

G|-------------------------------
D|-------------------------------
A|-------------------------------
E|7-7-7-7-7-7-7-7-6-6-6-6-6-6-6-6

G|---------------------------------------
D|---------------------------------------
A|---------------------------------------
E|9-9-9-9-9-9-9-9-12-12-12-12-12-12-12-12

G|-------------------------------
D|-------------------------------
A|-------------------------------
E|7-7-7-7-7-7-7-7-6-6-6-6-6-6-6-6

G|-------------------------------
D|-------------------------------
A|-0----------0--------0--0------
E|-------------------------------

G|-------------------------
D|-------------------------
A|-8-----8-----8-8--8-8----
E|-------------------------

G|-------------------------
D|-------------------------
A|-3-----3------3-3--3-3---
E|-------------------------

G|-------------------------
D|-------------------------
A|-------------------------
E|-3-----3------3-3--3-3---

G|-------------------------
D|-------------------------
A|-0-----0-----0-0--0-0----
E|-------------------------

G|-------------------------
D|-------------------------
A|-8-----8-----8---8-------
E|-------------------------

G|-------------------------
D|-------------------------
A|-3-----3------3-3--------
E|-------------------------

G|-------------------------
D|-------------------------
A|-------------------------
E|-3------------3----5-----


G|-------------------------
D|-------------------------
A|-0-----0-----0-0--0-0----
E|-------------------------

G|-------------------------
D|-------------------------
A|-8-----8-----8-8--8-8----
E|-------------------------

G|-------------------------
D|-------------------------
A|-3-----3------3-3--3-3---
E|-------------------------

G|-------------------------
D|-------------------------
A|-------------------------
E|-3-----3------3-3--5-5---

G|-------------------------
D|-------------------------
A|-0-----0-----0-0--0-0----
E|-------------------------

G|-------------------------
D|-------------------------
A|-8-----8-----8-8--8-8----
E|-------------------------

G|-------------------------
D|-------------------------
A|-3-----3------3-3--3-3---
E|-------------------------

G|-------------------------
D|-------------------------
A|-------------------------
E|-3-----3------3-3--5-5---

G|-------------------------
D|-------------------------
A|-0-----0-----0-0--0-0----
E|-------------------------

G|-------------------------
D|-------------------------
A|-8-----8-----8-8--8-8----
E|-------------------------

G|-------------------------
D|-------------------------
A|-3-----3------3-3--3-3---
E|-------------------------

G|-------------------------
D|-------------------------
A|-------------------------
E|-3-----3------3-3--5-5---

G|-------------------------
D|-------------------------
A|-0-----0-----0-0--0-0----
E|-------------------------

G|-------------------------
D|-------------------------
A|-8-----8-----8-8--8-8----
E|-------------------------

G|-------------------------
D|-------------------------
A|-3-----3------3-3--3-3---
E|-------------------------

G|-------------------------
D|-------------------------
A|-------------------------
E|-3-3-3---3-------5-------

G|-------------------------
D|-------------------------
A|-0-----------------------
E|-------------------------
Composição de Daron Malakian / Serj Tankian
Colaboração e revisão:
  • Jardel
3.354 exibições

0 comentários

Ver todos os comentários
00:00 / 00:00
Outros vídeos desta música
Repetir Qualidade Automático
Outros vídeos desta música
00:00 / 00:00
Automático

Cifra Club Pro

Aproveite o Cifra Club com benefícios exclusivos e sem anúncios
Cifra Club Pro
Aproveite o Cifra Club com benefícios exclusivos e sem anúncios
OK