Cifra Club

Soldier Side

System of a Down

Cifra: Principal
exibições 106.938
Tom: A#
Afinação: C# G# C# F# Bb Eb

Riff 1

D|-----------------------------------------||
A|-----------------------------------------||
F|------12-------12-------12-------12------||
C|----0---0---0---0---0---0---0---0--------||
G|--13-----13-------13-------13------------||
C|-----------------------------------------||

D|------------------------------------------|--------------------------------------||
A|------------------------------------------|--------------------------------------||
F|-------10--------10--------10--------10---|-------9--------9--------9--------9---||
C|-----0----0----0----0----0----0----0----0-|-----0---0----0---0----0---0----0---0-||
G|--12--------12--------12--------12--------|--12-------12-------12-------12-------||
C|------------------------------------------|--------------------------------------||

D|------------------------------------------|-----------------------------------------||
A|------------------------------------------|-----------------------------------------||
F|-------10--------10--------10--------10---|-------12------15------15--------14--12--||
C|-----0----0----0----0----0----0----0----0-|-----0----0-------0-------0----0---------||
G|--12--------12--------12--------12--------|--13--------13------13------13-----------||
C|------------------------------------------|-----------------------------------------||

D|----------------------------------------|--------------------------------------||
A|----------------------------------------|--------------------------------------||
F|-------10------12------12--------10--9--|-------9--------9--------9--------9---||
C|-----0----0-------0-------0----0--------|-----0---0----0---0----0---0----0---0-||
G|--12--------12------12------12----------|--12-------12-------12-------12-------||
C|----------------------------------------|--------------------------------------||

D|-------------------------||
A|-------------------------||
F|-------10--------10------||
C|-----0----0----0----0----||
G|--12--------12--------12-||
C|-------------------------||


Riff 2 ("dead men lying on the bottom of the grave")
|------------------------|-------------------------|
|------------------------|-------------------------|
|------------------------|-2-----------------------|
|--5-------------3---2---|-0-------------8---10----|
|--5-------------3---2---|-0-------------8---10----|
|--5-------------3---2---|-0-------------8---10----|


Riff 3
|-------------------------------------------------------------------|
|-------------------------------------------------------------------|
|-------------------------------------------------------------------|
|-------------------------------------------------------------------|
|---------------------------------------------------8-8-8-8-7-7-7-7-|
|---8-8-8-8-8-8-8-8-8-8-8-8-8-8-8-8-8-8-8-8-8-8-8-8-----------------|

|--13-13-13-13-13-13-13-13-13-13-13-13-13-13-13-13-13-13-13-13-13-13-13-13-17-17-17-17-15-15-15-15-|
|--15-15-15-15-15-15-15-15-15-15-15-15-15-15-15-15-15-15-15-15-15-15-15-15-18-18-18-18-17-17-17-17-|
|--------------------------------------------------------------------------------------------------|
|--------------------------------------------------------------------------------------------------|
|--------------------------------------------------------------------------------------------------|
|--------------------------------------------------------------------------------------------------|

|-------------------------------------------------------------------------------------------------|
|-11-11-11-11-11-11-11-11-11-11-11-11-11-11-11-11-11-11-11-11-11-11-11-11-18-18-18-18-17-17-17-17-|
|-12-12-12-12-12-12-12-12-12-12-12-12-12-12-12-12-12-12-12-12-12-12-12-12-17-17-17-17-17-17-17-17-|
|-------------------------------------------------------------------------------------------------|
|-------------------------------------------------------------------------------------------------|
|-------------------------------------------------------------------------------------------------|


Riff 4
|-------------------|-----------------|-----------------|-----------------|
|-------------------|-----------------|-----------------|-----------------|
|-------------------|-----------------|-----------------|-----------------|
|-5---5---5---3--2--|-0---0---0---0---|-7---7---7---7---|-0---2---3---2---|
|-5---5---5---3--2--|-0---0---0---0---|-7---7---7---7---|-0---2---3---2---|
|-5---5---5---3--2--|-0---0---0---0---|-7---7---7---7---|-0---2---3---2---|


Solo:
|-------------------------------------------------------------------------------------------------|
|-------------------------------------------------------------------------------------------------|
|-12-12-12-12-12-12-12-12-12-12-12-12-10-10-12-12-14-14-14-14-12-12-10-10-12-12-12-12-10-10-12-12-|
|-------------------------------------------------------------------------------------------------|
|-------------------------------------------------------------------------------------------------|
|-------------------------------------------------------------------------------------------------|

|-------------------------------------------------------------------------------------------------|
|-11-11-11-11-11-11-11-11-11-11-11-11-10-10-11-11-13-13-13-13-11-11-10-10-11-11-11-11-10-10-11-11-|
|-------------------------------------------------------------------------------------------------|
|-------------------------------------------------------------------------------------------------|
|-------------------------------------------------------------------------------------------------|
|-------------------------------------------------------------------------------------------------|

|-----------------------------------------------------------------------------------------------|
|-----------------------------------------------------------------------------------------------|
|-10-10-10-10-------------------------10-10-12-12-10-10-10-10-------------------------9-9-10-10-|
|-------------12-12-12-12-12-12-12-12-------------------------12-12-12-12-12-12-12-12-----------|
|-----------------------------------------------------------------------------------------------|
|-----------------------------------------------------------------------------------------------|

|-----------------------------------------------------------------------------------------------|
|-10-10-10-10-------------------------10-10-11-11-10-10-10-10-------------------------8-8-10-10-|
|-------------10-10-10-10-10-10-10-10-------------------------10-10-10-10-10-10-10-10-----------|
|-----------------------------------------------------------------------------------------------|
|-----------------------------------------------------------------------------------------------|
|-----------------------------------------------------------------------------------------------|

|-------------------------------------------------------------------------------------|
|-------------------------------------------------------------------------------------|
|-9-9-9-9-------------------------9-9-10-10-9-9-9-9-----------------------------------|
|---------11-11-11-11-11-11-11-11-------------------11-11-11-11-12-12-11-11-9-9-11-11-|
|-------------------------------------------------------------------------------------|
|-------------------------------------------------------------------------------------|

|-------------------------------------------------------------------------------------|
|-8-8-8-8-------------------------8-8-10-10-8-8-8-8-----------------------------------|
|-------------------------------------------------------------------------------------|
|---------11-11-11-11-11-11-11-11-------------------11-11-11-11-12-12-11-11-9-9-11-11-|
|-------------------------------------------------------------------------------------|
|-------------------------------------------------------------------------------------|

|-----------------------------------------------------------------------------------------|
|-----------------------------------------------------------------------------------------|
|-------------------------9-9-9-9-9-9-9-9-10-10-10-10-10-10-10-10-12-12-12-12-12-12-12-12-|
|-12-12-12-12-12-12-12-12-----------------------------------------------------------------|
|-----------------------------------------------------------------------------------------|
|-----------------------------------------------------------------------------------------|


Riff 5
|-----------------|-----------------|--------------------|------------------|
|-----------------|-----------------|--------------------|------------------|
|-----------------|-----------------|--------------------|------------------|
|-3---3---2---2---|-5---5---0---0---|-2---2----2----2----|--7---7---7---7---|
|-3---3---2---2---|-5---5---0---0---|-2---2----2----2----|--7---7---7---7---|
|-3---3---2---2---|-5---5---0---0---|-2---2----2----2----|--7---7---7---7---|


Riff 6
D|---5-----5h-6---5--4----4-----|-----6-8-10--8-6-5----5------||
A|------------------------------|-----------------------------||
F|------------------------------|-----------------------------||
C|--3-----3--3--------2--2---2--|--5-----------------3----3---||
G|------------------------------|-----------------------------||
C|------------------------------|-----------------------------||

D|---4----4-----------4--------|-----------------------------||
A|----------------5------------|-----------------10----------||
F|-----------------------------|-----------9-----------------||
C|---2--2-----2----2----2------|--------------7--------------||
G|-----------------------------|--------7--------------------||
C|-----------------------------|-----7-----------------------||
Acordes para:
    Composição: Daron MalakianColaboração e revisão:
    • Matheus
    • Aridson Aragão
    • wagner francisco

    0 comentários

      mostrar mais comentários

      Conseguiu tocar?

      15tocaram0ainda não

      Grave um vídeo tocando Soldier Side e mande pra gente!

      00:00 / 00:00
      outros vídeos desta música
      repetirqualidadeautomática
      Outro vídeos desta música
        00:00 / 00:00
        automática
        OK