Cifra Club

Hypnotize

System Of a Down

Tab de baixo: Versão 3
G|-11-11-11-11-11-11-11-11-|
D|-------------------------|
A|-------------------------| 4x
E|-------------------------|
B|-------------------------|
 
G|-----------------|
D|-4-4-4-4-4-4-4-4-|
A|-----------------| 3x
E|-----------------|
B|-----------------|

[Parte 1]

G|----------------------|
D|----------------------|
A|----------------5-5-5-| 8x
E|-2---2--2-2--2--------|
B|----------------------|

[Parte 2]

G|-11-11-11-11-11-11-11-11-11-11-11-11-11-11-|
D|-------------------------------------------|
A|-------------------------------------------| 2x
E|-------------------------------------------|
B|-------------------------------------------|

G|-----------------|
D|-4-4-4-4-4-4-4-4-|
A|-----------------| 2x
E|-----------------|
B|-----------------|

[Parte 1]

G|----------------------|
D|----------------------|
A|----------------5-5-5-| 8x
E|-2---2--2-2--2--------|
B|----------------------|

[Parte 2]

G|-11-11-11-11-11-11-11-11-11-11-11-11-11-11-|
D|-------------------------------------------|
A|-------------------------------------------| 2x
E|-------------------------------------------|
B|-------------------------------------------|

G|-----------------|
D|-4-4-4-4-4-4-4-4-|
A|-----------------| 2x
E|-----------------|
B|-----------------|

[Parte 1]

G|----------------------|
D|----------------------|
A|----------------5-5-5-| 2x
E|-2---2--2-2--2--------|
B|----------------------|

[Refrão]

G|---------------------------------------------|
D|---------------------------------------------|
A|---------5-5-5-5-5-5-5-5-7-7-7-7-------------|
E|-2-2-2-2-------------------------5--5--------|
B|---------------------------------------2--2--|

[Ponte 1]

G|-------------------------------------------------------|
D|-------------------------------------------------------|
A|-------------------------------------------------------| 6x
E|-2-----0-2-----0-2-----0-2-----0-----0-2-----0-2-----0-|
B|---2-2-----2-2-----2-2-----2-2---2-2-----2-2-----2-2---|

[Refrão]

G|-------------------------------------------------|
D|-------------------------------------------------|
A|---------5-5-5-5-5-5-5-5-7-7-7-7-----------------|
E|-2-2-2-2-------------------------5-5-5-5---------|
B|-----------------------------------------2-2-2-2-|

[Ponte 2]

G|--------------------------------------------------------------|
D|--------------------------------------------------------------|
A|--------------------------------------------------------------|
E|-2-----0-2-----0-2-----0-2-----0-----0-2-----0-2-----0-2-----0| 
B|---2-2-----2-2-----2-2-----2-2---2-2-----2-2-----2-2-----2-2--| 

[Refrão]

G|-----------------------------------------------------------|
D|-----------------------------------------------------------|
A|-------------5-5-5-5-5---5-5-5-5-5---7-7-7-7-7-------------|
D|-2-2-2-2-2---------------------------------------6~~-------|
B|------------------------------------------------------2~~--|
Composição de Daron Malakian / Serj Tankian
Colaboração e revisão:
  • Luan Aleixo
  • Raphael Luchini
3.805 exibições

0 comentários

Ver todos os comentários

Conseguiu tocar?

0 Tocaram 0 Ainda não

Grave um vídeo tocando Hypnotize e nos envie!

00:00 / 00:00
Outros vídeos desta música
Repetir Qualidade Automático
Outros vídeos desta música
00:00 / 00:00
Automático

Cifra Club Pro

Aproveite o Cifra Club com benefícios exclusivos e sem anúncios
Cifra Club Pro
Aproveite o Cifra Club com benefícios exclusivos e sem anúncios
OK