Cifra Club

Kill Rock N Roll

System Of a Down

Cifra: Principal (violão e guitarra)
tom: A
Afinação: C#  G#  C#  F#  A#  D

Intro Guitarra I
D|-----------------------------------------------------------------------------------|
A|-----------------------------------------------------------------------------------|
F|-----------------------------------------------------------------------------------|
C|-10-10-10-10-10-10-10-10-10-10-10-10-10-10-10-10-10-9-9-9-9-9-9-9-9-9-9-9-9-9-9-9-9|
G|8--8--8--8--8--8--8--8--0--0--0--0--0--0--0--0--0--7-7-7-7-7-7-7-7-8-8-8-8-8-8-8-8-|
C|-----------------------------------------------------------------------------------|

Intro Guitarra II
D|-13...--12...-13-13-15-15-15-15-------------------------------------------------|
A|-15...--13...-13-13-------------15-15-15-15-12-12-12-12-15-15-15-15-13...-------|
F|--------------------------------------------------------------------------------|
C|--------------------------------------------------------------------------------|
G|--------------------------------------------------------------------------------|
C|--------------------------------------------------------------------------------|

Riff 1
D|---------------------------------------------------------------|
A|---------------------------------------------------------------|
F|-------5-----------4------2--2-2-2-2-2-2-2---------------------|
C|3--x-x-5-x-x-2-x-x-4-x-x--2--2-2-2-2-2-2-2---------------------|
G|3--x-x-3-x-x-2-x-x-2-x-x--0--0-0-0-0-0-0-0---------------------|
C|3--x-x---x-x-2-x-x---x-x---------------------------------------|
                                P.M . . . . .

Refrão
D|------------------------------------------------------------------------------|
A|------------------------------------------------------------------------------|
F|------------------------------------------------------------------------------|
C|10-10-10-10-10-10-10-10-10-10-10-10-10-10-10-10-9-9-9-9-9-9-9-9-9-9-9-9-9-9-9-|
G|-8--8--8--8--8--8--8—-8—-0—-0—-0—-0—-0—-0—-0—-0-7-7-7-7-7-7-7-7-8-8-8-8-8-8-8-|
C|------------------------------------------------------------------------------|

Riff 2
D|---------------------------------------------------------------|
A|---------------------------------------------------------------|
F|---------------------------------------------------------------|
C|--3-------/8--7---------2-----3--------------------------------|
G|--3-------/8--7---------2-----3--------------------------------|
C|--3-------/8--7---------2-----3--------------------------------|

Verso                                                                 |Tocar na última vez|
D|----------------------------------------------------------------------|-------------------|
A|----------------------------------------------------------------------|-------------------|
F|----------------------------------------------------------------------|-------------------|
C|-----9---10-7----------9---10-7----------7---8-5----------7---8-5-----|-----7---8-5-----5-|
G|---8---8------8-7----8---8------8-7----6---6-----6-5----6---6-----6-5-|---6---6-----6-5-5-|
C|-7-----------------7-----------------5----------------5---------------|-5---------------5-|
    P.M . .  . . . .  . . . .  . . . .  . . . . . . . .  . . . . . . . .

Refrão
D|------------------------------------------------------------------------------|
A|------------------------------------------------------------------------------|
F|------------------------------------------------------------------------------|
C|10-10-10-10-10-10-10-10-10-10-10-10-10-10-10-10-9-9-9-9-9-9-9-9-9-9-9-9-9-9-9-|
G|-8--8--8--8--8--8--8—-8—-0—-0—-0—-0—-0—-0—-0—-0-7-7-7-7-7-7-7-7-8-8-8-8-8-8-8-|
C|------------------------------------------------------------------------------|

Riff 3
D|---------------------------------------------------------------------|
A|---------------------------------------------------------------------|
F|---------------------------------------------------------------------|
C|--3--3--3-----/8--7--7--7--7-----\2--2--2--2-2-2-2-----3--3--3-3-3-3-|
G|--3--3--3-----/8--7--7--7--7-----\2--2--2--2-2-2-2-----3--3--3-3-3-3-|
C|--3--3--3-----/8--7--7--7--7-----\2--2--2--2-2-2-2-----3--3--3-3-3-3-|
                                              P.M . .

Riff 4
D|---------------------------------------------------------------------------|
A|---------------------------------------------------------------------------|
F|---------------------------------------------------------------------------|
C|--3-3-3-3-3-3-3-3-3-3-3-3-3-3-3-3-8-8-8-8-7-7-7-7-7-7-7-7-7-7-7-7-7-7-7-7--|
G|--3-3-3-3-3-3-3-3-3-3-3-3-3-3-3-3-8-8-8-8-7-7-7-7-7-7-7-7-7-7-7-7-7-7-7-7--|
C|--3-3-3-3-3-3-3-3-3-3-3-3-3-3-3-3-8-8-8-8-7-7-7-7-7-7-7-7-7-7-7-7-7-7-7-7--|
     P.M . . . . . . . . . . . . . . . . . . . . . . . . . . . . . . . . . .

D|-------------------------------------------------------------------|
A|-------------------------------------------------------------------|
F|-------------------------------------------------------------------|
C|--2-2-2-2-2-2-2-2-2-2-2-2-2-2-2-2-3-3-3-3-3-3-3-3-3-3-3-3-3-3-3-3--|
G|--2-2-2-2-2-2-2-2-2-2-2-2-2-2-2-2-3-3-3-3-3-3-3-3-3-3-3-3-3-3-3-3--|
C|--2-2-2-2-2-2-2-2-2-2-2-2-2-2-2-2-3-3-3-3-3-3-3-3-3-3-3-3-3-3-3-3--|
     P.M . . . . . . . . . . . . . . . . . . . . . . . . . . . . . .

Final
D|--------------------------------------------------------------------------------|
A|--------------------------------------------------------------------------------|
F|-------5-----------4-----------5---------4---------------------------------2----|
C|3--x-x-5-x-x-2-x-x-4-x-x-3-x-x-5-x-2-x-x-4-x-x-----------------------------2----|
G|3--x-x-3-x-x-2-x-x-2-x-x-3-x-x-3-x-2-x-x-2-x-x-----3~~---2~~----3~~---2~~--0----|
C|3--x-x---x-x-2-x-x---x-x-3-x-x---x-2-x-x---x-x--3~~---2~~----3~~---2~~----------|
Composição de Daron Malakian
Colaboração e revisão:
92.150 exibições
    • ½ Tom
    • A
    • Bb
    • B
    • C
    • Db
    • D
    • Eb
    • E
    • F
    • F#
    • G
    • Ab
  • Adicionar à lista

    0 comentários

    Ver todos os comentários

    Conseguiu tocar?

    43 Tocaram 1 Ainda não

    Grave um vídeo tocando Kill Rock N Roll e nos envie!

    00:00 / 00:00
    Outros vídeos desta música
    Repetir Qualidade Automático
    Outros vídeos desta música
    00:00 / 00:00
    Automático

    Cifra Club Pro

    Aproveite o Cifra Club com benefícios exclusivos e sem anúncios
    Cifra Club Pro
    Aproveite o Cifra Club com benefícios exclusivos e sem anúncios
    OK