Cifra Club

Prison song

System Of a Down

Cifra: Versão 2 (violão e guitarra)
tom: C
D|---|-------------------------------------|
A|---|-------------------------------------|
F|---|-------------------------------------|
C|-0-|-0-1-0-1-0-1-0-1-0-1-0-1-0-1-0-0-0-0-|
G|-0-|-0-1-0-1-0-1-0-1-0-1-0-1-0-1-0-0-0-0-|
C|-0-|-0-1-0-1-0-1-0-1-0-1-0-1-0-1-0-0-0-0-|
Pm .   . . . . . . . . . . . . . . . . . .      


D|----------------------------|---------------|---------------|---------------|---------------|---------------------------------------------------------|
A|----------------------------|------3x-------|---------------|------3x-------|---------------|---------------------------------------------------------|
F|----------------------------|---------------|---------------|---------------|---------------|---------------------------------------------------------|
C|-0-1-0-1-0-1--------------3-|---------------|-------------3-|---------------|-------------3-|---------------------------------------------------------|
G|-0-1-0-1-0-1--------1-0-0-3-|-0-1-0-3-0-1-0-|-1-0-0-0-0-0-3-|-0-1-0-3-0-1-0-|-1-0-0-0-0-0-3-|-0h1-0h1-0h1-0h1-0h1-0h1-0h1-0h1-0h1-0h1-0h1-0h1-0h1-0h1-|
C|-0-1-0-1-0-1--------1-0-0-3-|-0-1-0-3-0-1-0-|-1-0-0-0-0-0-3-|-0-1-0-3-0-1-0-|-1-0-0-0-0-0-3-|-0h1-0h1-0h1-0h1-0h1-0h1-0h1-0h1-0h1-0h1-0h1-0h1-0h1-0h1-|
Pm . . . . . .        . . .     . . . . . . .   . . . . . .     . . . . . . .   . . . . . .     . . . . . . . . . . . . . . . . . . . . . . . . . . . .


D|-------------|
A|-------------|
F|----7-----7--|
C|--7-----7----|
G|-5-5-5-5-5-5-|
C|-------------|

         C5   C5   B5   
D|----------------------|-----------------------------------------|
A|----------------------|----------------2x-----------------------|
F|--------5~---5----4---|-----------------------------------------|
C|--------5~----5----4--|-----------------------------------------|
G|-1-0-0--3~--3--3-2--2-|-0-0-0-0-0-0-0-0-0-0-0-0-0-0-0-0-1-1-1-1-|
C|-1-0-0----------------|-0-0-0-0-0-0-0-0-0-0-0-0-0-0-0-0-1-1-1-1-|
Pm . . .                                                  . . . .


D|-------------------------------------|
A|--------------4x---------------------|
F|-------------------------------------|
C|-------------------------------------|
G|-0-0-0--0-0-0--0-0-0--0-0-0--1-1-1-1-|
C|-0-0-0--0-0-0--0-0-0- 0-0-0--1-1-1-1-|
Pm . . .  . . .  . . .  . . .  . . . . 

          
         C5   C5   B5   Dm                
D|-----------------------1~-|
A|-----------------------3~-|
F|--------5~---5----4----2~-|
C|--------5~----5----4---0~-|
G|-1-0-0--3~--3--3-2--2--0~-|
C|-1-0-0--------------------|
Pm . . .
Composição de Daron Malakian / Serj Tankian
Colaboração e revisão:
  • filipe freitas
3.541 exibições
    • ½ Tom
    • A
    • Bb
    • B
    • C
    • Db
    • D
    • Eb
    • E
    • F
    • F#
    • G
    • Ab
  • Adicionar à lista

    0 comentários

    Ver todos os comentários
    00:00 / 00:00
    Outros vídeos desta música
    Repetir Qualidade Automático
    Outros vídeos desta música
    00:00 / 00:00
    Automático

    Cifra Club Pro

    Aproveite o Cifra Club com benefícios exclusivos e sem anúncios
    Cifra Club Pro
    Aproveite o Cifra Club com benefícios exclusivos e sem anúncios
    OK