Cifra Club

Cê Tá Preparada (part. Marília Mendonça)

Tayrone

Cifra: Principal (violão e guitarra)
tom: D
[Intro] Em  G  D  A

[Tab - Solo Intro]

Parte 1 de 4 
                Em
E|------------------------------------------|
B|----------3h5-5--3-3-2-3-2-2/3--3---------|
G|--1/2-2-2---------------------------------|
D|------------------------------------------|
A|------------------------------------------|
E|------------------------------------------|
 
Parte 2 de 4 
                G
E|------------------------------------------|
B|----------3h5-5--3-3-2-3-2-2/3------------|
G|--1/2-2-2---------------------------------|
D|------------------------------------------|
A|------------------------------------------|
E|------------------------------------------|
 
Parte 3 de 4 
            D             
E|--------3-3p2---------3-3p2---------------|
B|------------------------------------------|
G|--1/2-2---------1/2-2---------------------|
D|------------------------------------------|
A|------------------------------------------|
E|------------------------------------------|

Parte 4 de 4  
               A
E|------------------------------------------|
B|--/7-7-7-7---7p5-5-5-5/3-3h5--------------|
G|-----------7------------------------------|
D|------------------------------------------|
A|------------------------------------------|
E|------------------------------------------|

[Primeira Parte] 

                Em
Cê sabe onde tá 

Entrando se envolvendo comigo
             G
Cê sabe que vai tá o tempo todo correndo perigo
           D
Posso tá ali pegando fogo e te amando
             A
Se ela ligar 

Largo tudo e vou voando

[Pré-Refrão] 

                Em
Tô de corpo solteiro, sentimento amarrado
             G
Vivendo o futuro esperando

Um “volta pra mim” do passado
           D
Posso tá ali pegando fogo e te amando
             A
Se ela ligar 

Largo tudo e vou voando

              G
Não quero te ver chorar
                A
Por isso não espere o que eu não posso dar

[Refrão] 

            Em
Cê tá preparada pra enxugar meu choro
              G
Quando eu souber que ela dormiu com outro
     D
Me ajuda, faz bem feito
                 A
Tira aquele trenzão gostoso do meu peito

            Em
Cê tá preparada pra enxugar meu choro
              G
Quando eu souber que ela dormiu com outro
     D
Me ajuda, faz bem feito
                 A
Tira aquele trenzão gostoso do meu peito

      G                      A
Me segura na cama porque no coração
         Bm   A
Não tem jeito

[Solo] Em  G  D  A

Parte 1 de 4 
                Em
E|------------------------------------------|
B|----------3h5-5--3-3-2-3-2-2/3--3---------|
G|--1/2-2-2---------------------------------|
D|------------------------------------------|
A|------------------------------------------|
E|------------------------------------------|
 
Parte 2 de 4 
                G
E|------------------------------------------|
B|----------3h5-5--3-3-2-3-2-2/3------------|
G|--1/2-2-2-----------------------4---------|
D|------------------------------------------|
A|------------------------------------------|
E|------------------------------------------|
 
Parte 3 de 4 
            D             
E|--------3-3p2---------3-3p2---------------|
B|------------------------------------------|
G|--1/2-2---------1/2-2---------------------|
D|------------------------------------------|
A|------------------------------------------|
E|------------------------------------------|

Parte 4 de 4  
               A
E|------------------------------------------|
B|--/7-7-7-7---7p5-5-5-5/3-3h5--------------|
G|-----------7------------------------------|
D|------------------------------------------|
A|------------------------------------------|
E|------------------------------------------|

[Primeira Parte] 

                Em
Cê sabe onde tá 

Entrando se envolvendo comigo
             G
Cê sabe que vai tá o tempo todo correndo perigo
           D
Posso tá ali pegando fogo e te amando
             A
Se ela ligar 

Largo tudo e vou voando

[Pré-Refrão] 

                Em
Tô de corpo solteiro, sentimento amarrado
             G
Vivendo o futuro esperando

Um “volta pra mim” do passado
           D
Posso tá ali pegando fogo e te amando
             A
Se ela ligar 

Largo tudo e vou voando

              G
Não quero te ver chorar
                A
Por isso não espere o que eu não posso dar

[Refrão] 

            Em
Cê tá preparada pra enxugar meu choro
              G
Quando eu souber que ela dormiu com outro
     D
Me ajuda, faz bem feito
                 A
Tira aquele trenzão gostoso do meu peito

            Em
Cê tá preparada pra enxugar meu choro
              G
Quando eu souber que ela dormiu com outro
     D
Me ajuda, faz bem feito
                 A
Tira aquele trenzão gostoso do meu peito

      G                      A
Me segura na cama porque no coração
         Bm   
Não tem jeito

[Solo Final] A

             A
E|--7/10--10-10/9--9--9--9---7--5-7---------|
B|--8/12--12-12/10-10-10-10--8--7-8---------|
G|------------------------------------------|
D|------------------------------------------|
A|------------------------------------------|
E|------------------------------------------|

[Final] 

      G                      A
Me segura na cama porque no coração
              D
Não tem jeito
00:00 / 00:00
Outros vídeos desta música
Repetir
Outros vídeos desta música
Composição de Blener Maycom / Waléria Leão
Colaboração e revisão:
  • Gustavo Zanandrez
  • Raffael Uascar
19.027 exibições
    • ½ Tom
    • A
    • Bb
    • B
    • C
    • Db
    • D
    • Eb
    • E
    • F
    • F#
    • G
    • Ab
  • Adicionar à lista

    0 comentários

    Ver todos os comentários

    Conseguiu tocar?

    1 Tocaram 0 Ainda não

    Grave um vídeo tocando Cê Tá Preparada (part. Marília Mendonça) e nos envie!

    Entre para oCifra Club PRO

    Tenha acesso a benefícios exclusivos no App e no Site

    • Chega de anúncios

    • Prioridade de compra em lançamentos

    • Mais recursos no app do Afinador

    • Atendimento Prioritário

    • Descontos nos produtos Cifra Club

    • Ajude a produzir mais conteúdo

    00:00 / 00:00

    Cifra Club Pro

    Aproveite o Cifra Club com benefícios exclusivos e sem anúncios
    Cifra Club Pro
    Aproveite o Cifra Club com benefícios exclusivos e sem anúncios
    OK