Cifra Club

Hey Bulldog

The Beatles

Tab de baixo: Principal
Selo Cifra Club: esta cifra foi revisada para atender aos critérios oficiais da nossa Equipe de Qualidade.
tom: Afinação:
INTRO
|----------|----------|----------|----------|--------7-----9-----1O--11--|
|----------|----------|----------|----------|--9--9-----9-----7----------|
|----------|----------|----------|----------|----------------------------|
|----------|----------|----------|----------|----------------------------|

|--------7-----11-----1O--9--|
|--9--9-----9------9---------|
|----------------------------|
|----------------------------|

A %
   sheep dog                                 standing in...
   child like                                no one...
   big man                                   walking...
|-----------------------------------------|-----------------------------|
|*--9---9--9--9--9--9--9--9--9--7---------|-----------7--9--7--9--9--7--|
|*---------------------------------11--9--|--9--9--9--------------------|
|-----------------------------------------|-----------------------------|

   bullfrog                      doing it...
   jacknife                      in your...
   wigman                        frightened...
|-----------------------------|-------------------------------9--|
|--9--9--9--9--9--8--7--------|---------7---9--7--9--7--9/11-----|
|-----------------------7--8--|--9--9----------------------------|
|-----------------------------|----------------------------------|

   some kind of...                                          what makes you...
   some kind of...                                          you don't know...
   some kind of...                                          you think you...
|--------------------------|-----------------------------|--------------------------|
|--7--7-----7--4--4-----4--|-------------6------------6--|--7--7-----7--4--4--------|
|--------7-----------4-----|--7--7---9-------7--9--7-----|--------7-----------4--3--|
|--------------------------|-----------------------------|--------------------------|

|------------------------------|
|--------4--4-----------4--4--*|
|--2--2--------2--2--2--------*|
|------------------------------|

B
   you can...                             you can...
|--------------------------|--------------------------|--------------------------|
|--------------------------|--------------------------|--------------------------|
|--2--2--2-----2--2--2-----|--2--2-----2--2-----2--2--|--7--7--7-----7--7--7-----|
|-----------2-----------2--|--------2--------2--------|-----------7-----------7--|

   you can talk...            lonely you...
|--------------------------|--------------------------|
|--------------------------|--------------------------|
|--7--7-----7--7-----7--7--|-----------5--7--7--7--7--|
|--------7--------7--------|--7--7--7-----------------|

C
|---------------------------|-----------------------------|
|---------------------------|-----------------------------|
|---------5-----7-----8--9--|--------5-----9--9-----8--7--|
|--7--7------7-----7--------|--7--7-----7--------7--------|

|---------------------------|-----------------------------|
|---------------------------|-----------------------------|
|---------5-----7-----8--9--|--------5-----9--9-----8--7--|
|--7--7------7-----7--------|--7--7-----7--------7--------|  TO CODA

D
|-------------------------------------------|----------------------------------|
|----------9--9--9--9--9--9--9--9--9--7--6--|----------------------7--9--7--9--|
|-------------------------------------------|--9---9---9---9---9---------------|
|--7---7------------------------------------|----------------------------------|

|-----------------------------|-----------------------9------|
|--9--9--9--9--9--7--6--------|--------7-----7--9/11-----11--|
|-----------------------9--7--|--9--9-----9------------------|
|-----------------------------|------------------------------|

|--------------------------|----------------------------|
|--7--7-----7--4--4-----4--|----------------------6-----|
|--------7-----------4-----|--7--7---7--9---7--9-----7--|
|--------------------------|----------------------------|

|--------------------------|--------------------------|
|--7--7--7--6--4--4--------|--------4--4--------4--4--|
|--------------------4--3--|--2--2--------2--2--------|
|--------------------------|--------------------------|

CODA
E
|------------------------------------------|----------------------------|
|*--9--9--9--9--9--9--9--9--9--9--9--9--9--|---------------7--9--7--9--*|
|*-----------------------------------------|--9--9---9--9--------------*|
|------------------------------------------|----------------------------|





_______________________________________________________
Contribuição: valdir felix junior(paulislive@ibest.com.br)
Outros vídeos desta música
    10.082 exibições

    Afinação da cifra

    Afinador online

    0 comentários

    Ver todos os comentários

    Entre para o Cifra Club PRO

    Tenha acesso a benefícios exclusivos no App e no Site

    • Chega de anúncios

    • Mais recursos no app do Afinador

    • Atendimento Prioritário

    • Aumente seu limite de lista

    • Ajude a produzir mais conteúdo

    Cifra Club Pro

    Aproveite o Cifra Club com benefícios exclusivos e sem anúncios
    Cifra Club Pro
    Aproveite o Cifra Club com benefícios exclusivos e sem anúncios
    OK