Cifra Club

Let It Be

The Beatles

Cifra: Guitarra-mateus-asato (violão e guitarra)
Selo Cifra Club: esta cifra foi revisada para atender aos critérios oficiais da nossa Equipe de Qualidade.
tom: A
[Intro]

   D           A
E|------------------------------------------|
B|------------------------------------------|
G|-11----9--7--6----------------------------|
D|-12---------------------------------------|
A|-12----------7----------------------------|
E|-10----9--7--5----------------------------|

[Primeira Parte]

Parte 1 de 9
     A                E
E|------------------------------------------|
B|------------------------------------------|
G|----------2----------------1/4------------|
D|-2------2-2h4p2---2--------2/6------------|
A|---0------------4-------------------------|
E|--------------------0----0----------------|

Parte 2 de 9
   F#m                D
E|-------------9----------------------------|
B|------------10----------------------------|
G|-------------9----4---/5\4p2~-------------|
D|-9h11----11-11------0---------------------|
A|-9----------------------------------------|
E|------------------------------------------|

Parte 3 de 9
   A                  E
E|------------------------------------------|
B|------------------------------------------|
G|-6------6h7---p6--6---br6\4---------------|
D|-7----7-----------7---br7\6---------------|
A|-0----------------------------------------|
E|--------------------0---------------------|

Parte 4 de 9
               D            A
E|-------------------------------5---5------|
B|---5---5--------7--------------5h7-5------|
G|---4h6-6p4------7--7h9-7--6----------\4p2-|
D|-----------7----7-------------------------|
A|-------------5------------7---------------|
E|-0-----------------9---7--5---------------|

Parte 5 de 9
   A             E
E|------------------------------------------|
B|-5------5h7/10---5/7\6/7\6/7p5---9/12-----|
G|-6-------------------------------7/10-----|
D|-7----7--------------------------9/12-----|
A|-0-------------------------------8/11-----|
E|---------------0---------------0------0---|

Parte 6 de 9
   F#m
E|------------14----------------------------|
B|-12h14------x--17p14----------------------|
G|-13---------x--------17\16p14----14h16----|
D|------------x-----------------16----------|
A|------------------------------------------|
E|-14------14-------------------------------|

Parte 7 de 9
   D          A                          
E|------------------------------------------|
B|---10~~\7\5-----12/14-----14h15h17--14----|
G|--------------------------14--------------|
D|-0--------------12/14-----14--------------|
A|------------0-----------0-----------------|
E|------------------------------------------|

Parte 8 de 9
   E
E|------------------------------------------|
B|---15p14\12----13p12-10-------------------|
G|------------------------------------------|
D|------------------------------------------|
A|-------------X----------------------------|
E|-0-----------X----------------------------|

Parte 9 de 9
   D                    A
E|------------------------------------------|
B|----------10------------------------------|
G|-------11-----7h9--7--6-------------------|
D|----12------------------------------------|
A|----------------------7-------------------|
E|-10-----------9----7--5-------------------|

[Primeiro Refrão]

Parte 1 de 5
              F#m             E
E|------------------------------------------|
B|----------------------5-5h7---/8\7p5------|
G|-4b6rb6r4\2------2-/6---6-----------------|
D|------------------------7-----------------|
A|------------------------------------------|
E|------------2---------------0---------0---|

Parte 2 de 5
   C#m        D
E|------------------------------------------|
B|------------------------------------------|
G|-----9----5\4\2---------------------------|
D|------------0------2h4/5\4p2--------------|
A|-11----------------0----------------------|
E|--9---------------------------------------|

Parte 3 de 5
     A
E|------------------------------------------|
B|--------------10----10--------------------|
G|------------9--9h11--9--------------------|
D|-2---/7-/11-------------\9p7--------------|
A|---0--------------------------------------|
E|------------------------------------------|

Parte 4 de 5
                     E
E|------------------------------------------|
B|------------------------------------------|
G|-6------6h7---p6-6---br6\4----------------|
D|-7----7----------7---br7\6----------------|
A|-0----------------------------------------|
E|-------------------0----------------------|

Parte 5 de 5
               D            A
                 H.N
E|------------------------------------------|
B|---5---5--------7-------------------------|
G|---4h6-6p4------7--7h9-7--6---------------|
D|-----------7----7-------------------------|
A|-------------5------------7---------------|
E|-0-----------------9---7--5---------------|

[Segundo Refrão]

Parte 1 de 6
            F#m                   E
E|-7/9/12\5-------5/16b17r16\14-----15p14\12|
B|--------------0---------------------------|
G|------------6-----------------------------|
D|----------4-------------------------------|
A|------------------------------------------|
E|--------------------------------0---------|

Parte 2 de 6

E|------------------------------------------|
B|-12b14rb14r12--13\12p10-------------------|
G|------------------------------------------|
D|------------------------------------------|
A|------------------------------------------|
E|------------------------------------------|

Parte 3 de 6
   D                     A
E|------------------------------------------|
B|---10---/11\10-----10---------------------|
G|----9h11/12\11p9--------------------------|
D|-0----------------------------------------|
A|-----------------------0------------------|
E|------------------------------------------|

Parte 4 de 6

E|------------------------------------------|
B|------------------------------------------|
G|------9-----9-----------------------------|
D|-11---9h11-11p9---------------------------|
A|----0-----------12------------------------|
E|------------------------------------------|

Parte 5 de 6
                         E
E|------------------------------------------|
B|-14-------14h15p14--14---15p14\12---------|
G|-14-------14------------------------------|
D|-14----14-----------14--------------------|
A|--0---------------------------------------|
E|-----------------------0------------------|

Parte 6 de 6
              D                    A
E|------------------------------------------|
B|---13\12-10----------10-------------------|
G|------------------11-----7p9--7--6--------|
D|---------------12-------------------------|
A|------------------------------------------|
E|-0----------10-----------9----7--5--------|

[Final]

   D           A           E    D    A
E|-----------------------------------5------|
B|-----------------------------------2------|
G|-11----9--7--6-----4--2--1---------4------|
D|-12---------------------------4----2------|
A|-12---------------------------5----0------|
E|-10----9--7--5--5--3--2--0----5-----------|
Outros vídeos desta música
    3.344 exibições
    • Simplificar cifra
      • ½ Tom
      • A
      • Bb
      • B
      • C
      • Db
      • D
      • Eb
      • E
      • F
      • F#
      • G
      • Ab
    • Adicionar à lista

    Afinação da cifra

    Afinador online

      0 comentários

      Ver todos os comentários

      Entre para o Cifra Club PRO

      Tenha acesso a benefícios exclusivos no App e no Site

      • Chega de anúncios

      • Badges exclusivas

      • Mais recursos no app do Afinador

      • Atendimento Prioritário

      • Aumente seu limite de lista

      • Ajude a produzir mais conteúdo

      Capítulos
      • Apresentação
      • Tocando a Música
      • Ensinando a Introdução
      • Explicando a Dinâmica da Música
      • Ensinando a Primeira Parte
      • Ensinando o Primeiro Refrão
      • Ensinando o Segundo Refrão
      • Ensinando a Parte Final
      • Encerramento

      Cifra Club Pro

      Aproveite o Cifra Club com benefícios exclusivos e sem anúncios
      Cifra Club Pro
      Aproveite o Cifra Club com benefícios exclusivos e sem anúncios
      Ops (: Contenido disponible sólo en portugués.
      OK