Cifra Club

Fire Woman

The Cult

Cifra: Principal (violão e guitarra)
tom: C
Intro:

E|---------------------------         -----
B|---------------------------         -----
G|--------------5----7-------         -----
D|------5-----5------7-------   (3x)  --5--         Riff    
A|----5-----3--------5-------         --5--
E|--3------------------------         --3--

E|-------------------------------------------------------------
B|-------------------------------------------------------------
G|-------------------------------------------------------------  (3x)
D|------5----7------7/10---------------------------------------   
A|-------------------------------------------------------------
E|-------------------------------------------------------------

E|-------------------------------------------------------------
B|-------------------------------------------------------------
G|-------------------------------------------------------------
D|--------------------------------------------5----5-----------
A|----------------------------8----6----5----------------------
E|-------------------------------------------------------------

 D                      C                G/B               C
Wound up, can't sleep, can't do anything right, little honey,
                    D           C
Oh, since I set my eyes on you.
   G/B                 C
I tell you the truth.
 D                          F                G
Twistin' like a flame in a slow dance, baby,
         F
You're driving me crazy.
      D               F       G      F
Come on, little honey,  come on now!


 D       C     G     C
Fireeeeeeeee eee! Smoke, she is a rising!
 D   F                G    C
Fire! Smoke on the horizon!
 D       C     G     C
Fireeeeeeeee eee! Smoke, she is a rising!
 D   F                 G     C
Fire! Smoke stack lightning!


 D                C                       G/B                  C
You shake it up, you're to blame, got me swayin' little honey.
                       D            C
My heart's a ball of burnin' flame.
     G/B       C
Oh, yes it is.
 D                        F             G
Trancing like a cat on a hot tin shack,
  F                    D                F        G              F
Lord, have mercy! Come on little sister,  come on and shake it!


 D       C     G     C
Fireeeeeeeee eee! Smoke, she is a rising!
 D   F                 G    C
Fire! Smoke on the horizon!
 D       C     G     C
Fireeeeeeeee eee! Smoke, she is a rising!
 D   F                 G     C
Fire! Smoke stack lightning!

                                         Riff 

                        I was thinking what I've been missing.
                           I'll tell you truthfully, well.
                               She's coming close now.
                                   I can feel her.
                              She's getting close to me.

 D       C     G     C
Fireeeeeeeee eee! Smoke, she is a rising!
 D   F                 G    C
Fire! Smoke on the horizon!
 D       C     G     C
Fireeeeeeeee eee! Smoke, she is a rising!
 D   F                 G     C
Fire! Smoke stack lightning!
                        D    Riff
Fire woman you're to blame
00:00 / 00:00
Outros vídeos desta música
Repetir
Outros vídeos desta música
Compositor não encontrado.
Colaboração e revisão:
  • Marcel Rocha
  • Nickolas Wagner
  • Allan Elias
13.331 exibições
    • ½ Tom
    • A
    • Bb
    • B
    • C
    • Db
    • D
    • Eb
    • E
    • F
    • F#
    • G
    • Ab
  • Adicionar à lista

    0 comentários

    Ver todos os comentários

    Conseguiu tocar?

    0 Tocaram 0 Ainda não

    Grave um vídeo tocando Fire Woman e nos envie!

    Entre para oCifra Club PRO

    Tenha acesso a benefícios exclusivos no App e no Site

    • Chega de anúncios

    • Prioridade de compra em lançamentos

    • Mais recursos no app do Afinador

    • Atendimento Prioritário

    • Descontos nos produtos Cifra Club

    • Ajude a produzir mais conteúdo

    00:00 / 00:00

    Cifra Club Pro

    Aproveite o Cifra Club com benefícios exclusivos e sem anúncios
    Cifra Club Pro
    Aproveite o Cifra Club com benefícios exclusivos e sem anúncios
    OK