Cifra Club

Blue Blood Blues

The Dead Weather

Cifra: Principal (violão e guitarra)
tom: G
Main Riff x3:

E|----------------------|
B|----------------------|
G|----------------------|
D|----------------------|
A|----------------------|
E|-0-0--2-2-2-2b(1/2)-2-|

Riff 1

E|----------------------------|
B|----------------------------|
G|----------------------------|
D|----------------------------|
A|----------5h7h9-7p5h7p5-----|
E|-0-0--5h7---------------7p5-|

(Main Riff x3)
(Riff 1)

Riff 2 x3:

E|-----------------------------|
B|-----------------------------|
G|-----------------------------|
D|-----------------------------|
A|-----7-----------------------|
E|-0-0----6-6b(1/4)-6b(1/2)-6b-|

(Riff 1)
(Riff 2)(x3)
(Riff 1) 

Riff 3 x3:

E|-----------------------------|
B|-----------------------------|
G|-----------------------------|
D|---------------------2-------|
A|-----7--------2--1-2---------|
E|-0-0----0-2-3----------------|

(Riff 1)  
(Main Riff)(x3)

(Riff 1)(x5)
(Riff 2)(x3)

(Riff 1)  
(Main Riff)(x3)

(Riff 1)  
(Main Riff)(x3)

(Riff 1)(x4)
(Riff 2)(x3)

(Riff 1)  
(Riff 2)(Riff 3)(x3)

(Riff 1)  
(Main Riff)(x3)

(Riff 1)  
(Main Riff)(x3)

(Riff 1)(x5)
(Riff 1)(Riff 3)  

(Riff 2)(x3)
(Riff 2)(Riff 3)  

(Riff 2)(x6)
00:00 / 00:00
Outros vídeos desta música
Repetir
Outros vídeos desta música
Composição de Dean Fertita / Jack Lawrence / Jack White
Colaboração e revisão:
  • RuthSodere
637 exibições
    • ½ Tom
    • A
    • Bb
    • B
    • C
    • Db
    • D
    • Eb
    • E
    • F
    • F#
    • G
    • Ab
  • Adicionar à lista

    0 comentários

    Ver todos os comentários

    Entre para oCifra Club PRO

    Tenha acesso a benefícios exclusivos no App e no Site

    • Chega de anúncios

    • Prioridade de compra em lançamentos

    • Mais recursos no app do Afinador

    • Atendimento Prioritário

    • Descontos nos produtos Cifra Club

    • Ajude a produzir mais conteúdo

    00:00 / 00:00

    Cifra Club Pro

    Aproveite o Cifra Club com benefícios exclusivos e sem anúncios
    Cifra Club Pro
    Aproveite o Cifra Club com benefícios exclusivos e sem anúncios
    OK