Cifra Club

Love Me Two Times

The Doors

Cifra: Principal
exibições 191.181
Tom: E
Introdução: E

E|------------------------------------------|
B|------------------------------------------|
G|------------------------------------------|
D|---0----2----0--2-------------------------|
A|-2----2----2------------------------------|
E|------------------------------------------|

E|------------------------------------------|
B|------------------------------------------|
G|------0h1p0h1p...------0h1p0h1p...--------|
D|------------------------------------------|
A|------------------------------------------|
E|-0--0-------------0--0-------------0------|


Primeira Parte:

   E
E|------------------------------------------|
B|------------------------------------------|
G|------------------------------------------|
D|---0----2----0--2-------------------------|
A|-2----2----2------------------------------|
E|------------------------------------------|

E|------------------------------------------|
B|------------------------------------------|
G|------0h1p0h1p...------0h1p0h1p...--------|
D|------------------------------------------|
A|------------------------------------------|
E|-0--0-------------0--0-------------0------|

   A
E|---------5--------------------------------|
B|------5--5----8br-------------------------|
G|------6-----6-----------------------------|
D|-2----7-----------------------------------|
A|-0--0-------------------------------------|
E|------------------------------------------|

E
  Love me two times, babe

Love me twice today
                    A
Love me two times, girl
            E
I'm goin' away

   D7(9)
E|---------0----------0-----------------0---|
B|------1-----3p1---1---1--b5r3p1-3---1---1-|
G|----2-----------2-----------------2-------|
D|-0----------------------------------------|
A|------------------------------------------|
E|------------------------------------------|

   C7
E|-6--6--6--6--6----------------------------|
B|-5--5--5--5--5----------------------------|
G|-5--5--5--5--5----------------------------|
D|------------------------------------------|
A|------------------------------------------|
E|------------------------------------------|

                    D7(9)
Love me two times, girl

One for tomorrow
                   C7
One just for today


Primeiro Refrão:

 G           D7(9)
Love me two times
C7      B7     E
   I'm goin' away


Segunda Parte:

   E
E|------------------------------------------|
B|------------------------------------------|
G|------------------------------------------|
D|---0----2----0--2-------------------------|
A|-2----2----2------------------------------|
E|------------------------------------------|

E|------------------------------------------|
B|------------------------------------------|
G|------0h1p0h1p...------0h1p0--------------|
D|------------------------------------------|
A|------------------------------------------|
E|-0--0----------------0--------------------|

   A
E|---------5--------------------------------|
B|------5--5----8br-------------------------|
G|------6-----6-----------------------------|
D|-2----7-----------------------------------|
A|-0--0-------------------------------------|
E|------------------------------------------|

E
  Love me one time

I could not speak
                 A
Love me one time
                    E
Yeah, my knees got weak

   D7(9)
E|------------0-------------0----0----------|
B|-------0h1-------b5r3p1-1--------0-3b-0-3-|
G|----2-------------------------------------|
D|-0----------------------------------------|
A|------------------------------------------|
E|------------------------------------------|

   C7
E|-6--6--6--6--6----------------------------|
B|-5--5--5--5--5----------------------------|
G|-5--5--5--5--5----------------------------|
D|------------------------------------------|
A|------------------------------------------|
E|------------------------------------------|

                    D7(9)
Love me two times, girl
                              C7
Last me, all through the week


Segundo Refrão:

G              D7(9)
  Love me two times
C7      B7     E7(9+)
   I'm goin' away

G              D7(9)
  Love me two times
C7      B7     E
   I'm goin' away


Solo: E  A  E
      G  D7(9)  C7  B7  E7(9+)
      G  D7(9)  C7  B7
      E

   E
E|------------------------------------------|
B|------------------------------------------|
G|------------------------------------------|  (3x)
D|---0----2----0--2------2--2------2--2-----|
A|-2----2----2------------------------------|
E|------------------0--0------0--0------0---|

   A
E|---------5---------------5----------------|
B|------5--5----8br-----8-------------------|
G|------6-----6------6----------------------|
D|-2----7-----------------------------------|
A|-0--0-------------------------------------|
E|------------------------------------------|

   E
E|------------------------------------------|
B|------------------------------------------|
G|------------------------------------------|
D|------2--2------2--2------0----2----0-2---|
A|------------------------2----2----2-------|
E|-0--0------0--0------0--------------------|

   G        D7(9) C7      B7
E|------3------0-------0--------------------|
B|------3------1--1--1-1--0--0--------------|
G|----4---4----2--3--3-3--2--2--------------|
D|----5---5-0-----2--2----1--1--------------|
A|----------------3--3----2--2--------------|
E|-3----------------------------------------|

   E7(9+)
E|-3--3--3--3--3--3--3--3--3--3--3----------|
B|-3--3--3--3--3--3--3--3--3--3--3----------|
G|-1--1--1--1--1--1--1--1--1--1--1----------|
D|-2--2--2--2--2--2--2--2--2--2--2----------|
A|------------------------------------------|
E|------------------------------------------|

   G       D7(9)   C7      B7
E|-3--3--x-0--0--x-------x------------------|
B|-3-----x-1--1--x-1--1--x-0--0-------------|
G|-4-----x-2--2--x-3--3--x-2--2-------------|
D|-5-------0--0----2--2----1--1-------------|
A|-5---------------3--3----2--2-------------|
E|-3----------------------------------------|


Terceira Parte:

   E
E|------------------------------------------|
B|------------------------------------------|
G|------------------------------------------|
D|---0----2----0--2-------------------------|
A|-2----2----2------------------------------|
E|------------------------------------------|

E|------------------------------------------|
B|------------------------------------------|
G|------------------------------------------|
D|------0h2p0h2p...------0h2p0--------------|
A|------------------------------------------|
E|-0--0----------------0--------------------|

   A
E|---------5--------------------------------|
B|------5--5----8br-------------------------|
G|------6-----6-----------------------------|
D|-2----7-----------------------------------|
A|-0--0-------------------------------------|
E|------------------------------------------|

E
  Love me one time

I could not speak
                   A
Love me one time, babe
                    E
Yeah, my knees got weak

   D7(9)
E|-----------0------------0-------0---------|
B|-------0h1----b5r3p1-------3b5----b5r3-1-1|
G|----2----------------2-------------------2|
D|-0----------------------------------------|
A|------------------------------------------|
E|------------------------------------------|

   C7
E|-6--6--6--6--6----------------------------|
B|-5--5--5--5--5----------------------------|
G|-5--5--5--5--5----------------------------|
D|------------------------------------------|
A|------------------------------------------|
E|------------------------------------------|

                    D7(9)
Love me two times, girl
                             C7
Last me all through the week


Terceiro Refrão:

G              D7(9)
  Love me two times
C7      B7     E
   I'm goin' away


Quarta Parte:

   E
E|------------------------------------------|
B|------------------------------------------|
G|------------------------------------------|
D|------2--2------2--2----------------------|
A|------------------------------------------|
E|-0--0------0--0------0--------------------|

E|------------------------------------------|
B|------------------------------------------|
G|------------------------------------------|
D|---0----2----0--2------2--2------2--2-----|
A|-2----2----2------------------------------|
E|------------------0--0------0--0------0---|

E|---------------------------------0--------|
B|------------------------------3----0------|
G|-----------------------0--2/4---------2-0-|
D|---0----2----0--2-------------------------|
A|-2----2----2------------------------------|
E|------------------0--0--------------------|

                    A
E|--------------------------5--------------5|
B|-----------------------5--5----8br-----8--|
G|-----------------------6-----6-------6----|
D|-2-0----2----0--2------7------------------|
A|------2----2------0--0--------------------|
E|------------------------------------------|

   E
E|------------------------------------------|
B|-----------------3--3-3--3-3--3-3---5\----|
G|-------------2/4-4--4-4--4-4--4-4---4\----|
D|------2--2--------------------------------|
A|------------------------------------------|
E|-0--0------0------------------------------|

   D7(9)
E|-------0---------------0------------------|
B|-----1----1--3b5r3p1-----1----------------|
G|---2-----------------2--------------------|
D|-0----------------------------------------|
A|------------------------------------------|
E|------------------------------------------|

E|-/10-------10-----------------------------|
B|-/10----10-----10----10-------------------|
G|-----11-----------11----------------------|
D|------------------------------------------|
A|------------------------------------------|
E|------------------------------------------|

   C7
E|-6--6--6--6--6----------------------------|
B|-5--5--5--5--5----------------------------|
G|-5--5--5--5--5----------------------------|
D|------------------------------------------|
A|------------------------------------------|
E|------------------------------------------|

E
  Love me two times, babe

Love me twice today
                    A
Love me two times, babe
                  E
Cause I'm goin' away
                    D7(9)
Love me two times, girl

One for tomorrow
                   C7
One just for today


Refrão Final:

G              D7(9)
  Love me two times
C7      B7     E7(9+)
   I'm goin' away

G              D7(9)
  Love me two times
C7      B7     E7(9+)
   I'm goin' away

G              D7(9)
  Love me two times
C7      B7     E7(9+)
   I'm goin' away
Acordes para:
    Composição: The DoorsColaboração e revisão:
    • Vinícius Dias
    • wallace batista

    0 comentários

      mostrar mais comentários

      Conseguiu tocar?

      8tocaram2ainda não

      Grave um vídeo tocando Love Me Two Times e mande pra gente!

      00:00 / 00:00
      outros vídeos desta música
      repetirqualidadeautomática
      Outro vídeos desta música
        00:00 / 00:00
        automática
        Capítulos
        • Tocando a música
        • Dicas Iniciais / Equipamentos
        • Acordes da Introdução
        • Tocando a Introdução
        • Introdução
        • Acordes da Primeira Parte
        • Tocando a Primeira Parte
        • Primeira Parte
        • Acordes do Refrão
        • Tocando o Refrão
        • Ritmo do Refrão
        • Tocando a Segunda Parte
        • Segunda Parte
        • Tocando o Segundo Refrão
        • Ritmo do Segundo Refrão
        • Tocando o Solo
        • Base do Solo
        • Tocando a Terceira Parte
        • Terceira Parte
        • Tocando o Terceiro Refrão - Final
        • Quarta Parte
        • Encerramento
        • Ficha Técnica
        OK