Cifra Club

Aprenda

Gratisfaction

The Strokes

Tab de baixo: Principal
Verse 1

G --------------------------------------------------|
D --------------------------------------------------|
A 8-88--7-77--5-55--3-33----------------------------|
E ------------------------3-3--33-3--33-3--33-3-----|
                                                    \
                                                     \  
                                                       X2
                                                     /
                                                    /
G --------------------------------------------------|
D --------------------------------------------------|
A 3-33--5-55--7-77--12-1212--8-8--88-8--88-8--7--10-|
E --------------------------------------------------|


After playing above part twice

G --------------------------------------------------|
D --------------------------------------------------|
A 8-88--7-77--5-55--3-33----------------------------|
E ------------------------3-3--33-3--33-3--33-3-----|


Chorus 1

G ---------------------------------------------|
D 3--------3-----------------------------------|
A ---5--------3-33-33-3---3--2--------5-55-55--|
E ------3-----------------------5--3-----------|


G ---------------------------------------------|
D ---2--3--------2--------------2--------------|
A 5--------5--3--------------3--------5--------|
E ------------------3-33-33--------6-----5-----|


Verse 2

G --------------------------------------------------|
D --------------------------------------------------|
A 8-88--7-77--5-55--3-33----------------------------|
E ------------------------3-3--33-3--33-3--33-3-----|
                                                    \
                                                     \  
                                                       X2
                                                     /
                                                    /         
G --------------------------------------------------|
D --------------------------------------------------|
A 3-33--5-55--7-77--12-1212--8-8--88-8--88-8--7--10-|
E --------------------------------------------------|


After playing above part twice

G --------------------------------------------------|
D --------------------------------------------------|
A 8-88--7-77--5-55--3-33----------------------------|
E ------------------------3-3--33-3--33-3--33-3-----|



Chorus 2

G ---------------------------------------------|
D 3--------3-----------------------------------|
A ---5--------3-33-33-3---3--2--------5-55-55--|
E ------3-----------------------5--3-----------|


G ---------------------------------------------|
D ---2--3--------2--------------2--------------|
A 5--------5--3--------------3--------5--------|
E ------------------3-33-33--------6-----5-----|


Solo

G -----------------------------------------------|
D -----------------------------------------------|
A 3--3--3/7--0-3--3--3/7--0-3--3--3/7-0-3--3--3/7|
E -----------------------------------------------|


G ---------------------------------------------------|
D ---------------------------------------------------|
A 3-5--5--5/7--3-5--5--5/7--3-5--5--5/7--3-5--5--5/7-|
E ---------------------------------------------------|


G -----------------------------|
D -----------------------------|
A 3--3--3--3--3--3--3--3--3--3-|
E -----------------------------|


Break


Chorus 3-----Last chorus ppl!!!!!

G ---------------------------------------------|
D 3--------3-----------------------------------|
A ---5--------3-33-33-3---3--2--------5-55-55--|
E ------3-----------------------5--3-----------|
                                               \
                                                \
                                                  X2
                                                /
                                               / 
G ---------------------------------------------|
D ---2--3--------2--------------2--------------|
A 5--------5--3--------------3--------5--------|
E ------------------3-33-33--------6-----5-----|
Composição de The Strokes
Colaboração e revisão:
  • Lucas Idalino
123 exibições

0 comentários

Ver todos os comentários

Conseguiu tocar?

0 Tocaram 0 Ainda não

Grave um vídeo tocando Gratisfaction e nos envie!

00:00 / 00:00
Outros vídeos desta música
Repetir Qualidade Automático
Outros vídeos desta música
00:00 / 00:00
Automático

Cifra Club Pro

Aproveite o Cifra Club com benefícios exclusivos e sem anúncios
Cifra Club Pro
Aproveite o Cifra Club com benefícios exclusivos e sem anúncios
OK