Enviar cifraEntrar

Reptilia

The Strokes

Cifra: Principal
exibições 307.160
Tom: A
Intro:
Guitarra 1[Main Riff]:

E|------------------------------------------------------------------------|
B|------------------------------------------------------------------------|
G|-7-7-7-----7-7-7--------------------------------------------------------|
D|-x-x-x-9-7-x-x-x-9-7----------------------------------------------------|
A|-x-x-x-x-x-x-x-x-x-x--11-11-11--14--17--11-11-11--14--17----------------|
E|-7-7-7-7-7-7-7-7-7-7---0--0--0---0---0---0--0--0---0---0----------------| (4x)


[Main Riff Variação]

E|-----------------------------------------------------------------------|
B|-----------------------------------------------------------------------|
G|-----------------------------------------------------------------------|
D|12-12-12-----12-12-12------------------12--------------12--------------|
A|--------14-12--------14-12--11-11-11-14----11-11-11-14-----------------|
E|-----------------------------------------------------------------------| (4x)


Guitarra 2:

E|-----------------|-----------------|-----------------|-----------------|
B|-----------------|-----------------|-----------------|-----------------|
G|-7-7-7-7-7-7-7-7-|-7-7-7-7-7-7-7-7-|-9-9-9-9-9-9-9-9-|-9-9-9-9-9-9-9-9-|
D|-9-9-9-9-9-9-9-9-|-9-9-9-9-9-9-9-9-|-9-9-9-9-9-9-9-9-|-9-9-9-9-9-9-9-9-|
A|-9-9-9-9-9-9-9-9-|-9-9-9-9-9-9-9-9-|-7-7-7-7-7-7-7-7-|-7-7-7-7-7-7-7-7-|
E|-----------------|-----------------|-----------------|-----------------|


Riff B:
Guitarra 2:
E|----| |----| |----| |----| |----| |----| |----| |----|
B|-15\| |-10/| |-12/| |-14\| |-12/| |-14\| |-10/| |-15-|
G|----| |----| |----| |----| |----| |----| |----| |----|
D|----| |----| |----| |----| |----| |----| |----| |----|
A|-14\| |--9/| |-10/| |-12\| |-10/| |-12\| |--9/| |-14-|
E|----| |----| |----| |----| |----| |----| |----| |----|

Guitarra 1 4x:

E|-7-------10-9-----------7-7----7-10-9-----12-9----7---7-10-9----12-9-----------9--10-7-----9-|
B|----7--10------7--10--------8----------10-----------8---------10-------7--8--7----------7----|
G|---------------------------------------------------------------------------------------------|
D|---------------------------------------------------------------------------------------------|
A|---------------------------------------------------------------------------------------------|
E|---------------------------------------------------------------------------------------------|


Guitarra 1:
    Bm       E
E|--7--| |--x--|
B|--7--| |--9--|
G|--7--| |--9--|
D|--9--| |--9--|
A|--9--| |--7--|
E|--7--| |-----|

Guitarra 2:

E|-----------------------------------------------------------------------|
B|-9-7---7---------------7-9-7---7-----------------9-7---7---------------|
G|-----9---9-7-9-7-6-7-6-------9---9-7-9-7-6-7-6-------9-----------------|
D|-----------------------------------------------9-----------------------|
A|-----------------------------------------------------------------------|
E|-----------------------------------------------------------------------|


E|-----------------------------------------------7-----------------------|
B|--------------7-9-6---7------------------10b12---10p9------------------|
G|-9-7-9-7-6-7-6------9---9-7-9-7-6-\4-(4)--------------11-9-------------|
D|-----------------------------------------------------------------------|
A|-----------------------------------------------------------------------|
E|-----------------------------------------------------------------------|


E|-----10-9----------------12b14-br-10p9------------12b14br-10p9---------|
B|----------10p9-------------------------12-10-12-9--------------12------|
G|11-7-----------11-9-11-7-----------------------------------------------|
D|-----------------------------------------------------------------------|
A|-----------------------------------------------------------------------|
E|-----------------------------------------------------------------------|


E|-----------------------------------------------------------------------|
B|pr9b10-br-9-7---7---------------7-9-7---7------------------------------|
G|--------------9---9-7-9-7-6-7-6-------9---9-7\4------------------------|
D|-----------------------------------------------------------------------|
A|-----------------------------------------------------------------------|
E|-----------------------------------------------------------------------|


[Palm Mute]
E|-----|
B|-----|
G|--7--|
D|--9--|
A|--9--|
E|--7--|

[Final]
E|--7--|
B|--7--|
G|--7--|
D|--9--|
A|--9--|
E|-----|
  • 1
  • 2
  • 3
  • 4
  • 5
  • 6
  • 7
  • 8
  • 9
  • 10
  • 11
  • 12
    Acordes para:

      0 comentários

        mostrar mais comentários

        Conseguiu tocar?

        51tocaram2ainda não

        Grave um vídeo tocando Reptilia e mande pra gente!

        00:00 / 00:00
        outros vídeos desta música
        repetirqualidadeautomática
        • automática
        Outro vídeos desta música
          00:00 / 00:00
          automática
          • automática
          fecharplay/pause subir/descer velocidade
            acordes
            fechar
            OK
            Feedback