Cifra Club

Aprenda

300 Mph Torrential Outpoor Blues

The White Stripes

Cifra: Principal (violão e guitarra)
Tom: E
E|-----------------|
B|-----------------|
G|------1-x-1--2---|
D|------2-x-2--0---|
A|-----------------|
E|---0-------------|

E|-------------------------------------------|
B|----------3-----3----3----5--3-3-----------|
G|---0--1--2---------------------------------|
D|-------------------------------------------|
A|-------------------------------------------|
E|-----0----0----0----0----0----0---0----0---|

E (riff)
I'm bringing back ghosts
D
That are no longer there
E (riff)
I'm getting hard on myself
D
Sittin in my easy chair.
         A
Well theres 3 people in the mirror
       G           D              E (Riff)
And I'm wondering which one of them I should choose
       B
Well I cant keep from laughing
          D         G          E
Spitting out these 300 mile per hour outpour blues
Composição de Jack White III
Colaboração e revisão:
  • Fabrizio Jacobucci
6.075 exibições
    • ½ Tom
    • A
    • Bb
    • B
    • C
    • Db
    • D
    • Eb
    • E
    • F
    • F#
    • G
    • Ab
  • Adicionar à lista

    0 comentários

    Mostrar mais comentários

    Conseguiu tocar?

    2 Tocaram 0 Ainda não

    Grave um vídeo tocando 300 Mph Torrential Outpoor Blues e mande pra gente!

    00:00 / 00:00
    outros vídeos desta música
    repetir qualidade Automático
    Outros vídeos desta música
    00:00 / 00:00
    Automático

    Cifra Club Pro

    Aproveite o Cifra Club com benefícios exclusivos e sem anúncios
    Cifra Club Pro
    Aproveite o Cifra Club com benefícios exclusivos e sem anúncios
    OK