Cifra Club

Aprenda

Deadly Game

Theory Of A Deadman

Cifra: Principal (violão e guitarra)
Tom: C
-----------------------------------------------------------------|
-2-2-2-2-2-2-2-2-4-4-4-4-4-4-4-4-1-1-1-1-1-1-1-1-3-3-3-3-3-3-3-3-|
-3-3-3-3-3-3-3-3-5-5-5-5-5-5-5-5-2-2-2-2-2-2-2-2-0-0-0-0-0-0-0-0-|
-----------------------------------------------------------------|
-----------------------------------------------------------------|
-----------------------------------------------------------------|

-----------------------------------------------------------------|
-2-2-2-2-2-2-2-2-4-4-4-4-4-4-4-4-1-1-1-1-1-1-1-1-1-1-1-1-1-1-1-1-|
-3-3-3-3-3-3-3-3-5-5-5-5-5-5-5-5-2-2-2-2-2-2-2-2-2-2-2-2-2-2-2-2-|
-----------------------------------------------------------------|
-----------------------------------------------------------------|
-----------------------------------------------------------------|

(main Riff)
-------------------------------------------------------------------------|
-------------------------------------------------------------------------|
-------------------------------------------------------------------------|
-------------------------------------------------------------------------|
-3-3-3-3-5-5-5-5-3-3-3-3-0-0-0-0-1-1-1-1-5-5-5-5-3-3-3-3-0-0-0-0-1-1-1-1-|
-3-3-3-3-5-5-5-5-3-3-3-3-0-0-0-0-1-1-1-1-5-5-5-5-3-3-3-3-0-0-0-0-1-1-1-1-|

---------------------------------------------------------------------|
---------------------------------------------------------------------|
---------------------------------------------------------------------|
---------------------------------------------------------------------|
-5-5-5-5-3-3-3-3-10-10-10-10-8-8-8-8-0-0-0-0-0-0-0-0-0-0-0-0-3-3-3-3-|
-5-5-5-5-3-3-3-3-10-10-10-10-8-8-8-8-0-0-0-0-0-0-0-0-0-0-0-0-3-3-3-3-|

(verse)

(Roll the dice, play the cards...)
-------------------------------------------------------------------|
-2-2-2-2-2-2-2-2-2-4-4-4-4-4-4-4-4-1-1-1-1-1-1-1-1-3-3-3-3-3-3-3-3-|
-3-3-3-3-3-3-3-3-3-5-5-5-5-5-5-5-5-3-3-3-3-3-3-3-3-0-0-0-0-0-0-0-0-|
-------------------------------------------------------------------|
-------------------------------------------------------------------|
-------------------------------------------------------------------|

-------------------------------------------------------------------|
-2-2-2-2-2-2-2-2-2-4-4-4-4-4-4-4-4-1-1-1-1-1-1-1-1-1-1-1-1-1-1-1-1-|
-3-3-3-3-3-3-3-3-3-5-5-5-5-5-5-5-5-3-3-3-3-3-3-3-3-3-3-3-3-3-3-3-3-|
-------------------------------------------------------------------|
-------------------------------------------------------------------|
-------------------------------------------------------------------|

(Too many players but too many pawns...)
-------------------------------------------------------------------|
-2-2-2-2-2-2-2-2-2-4-4-4-4-4-4-4-4-1-1-1-1-1-1-1-1-3-3-3-3-3-3-3-3-|
-3-3-3-3-3-3-3-3-3-5-5-5-5-5-5-5-5-3-3-3-3-3-3-3-3-0-0-0-0-0-0-0-0-|
-------------------------------------------------------------------|
-------------------------------------------------------------------|
-------------------------------------------------------------------|

------------------------------------------------------------------|
-2-2-2-2-2-2-2-2-4-4-4-4-4-4-4-4----------------------------------|
-3-3-3-3-3-3-3-3-5-5-5-5-5-5-5-5----------------------------------|
------------------------------------------------------------------|
--------------------------------0-0-0-0-0-0-0-0-0-0-0-0-0-0-0-0-0-|
--------------------------------0-0-0-0-0-0-0-0-0-0-0-0-0-0-0-0-0-|

-----------------|
-----------------|
-----------------|
-----------------|
-0-0-0-0-3-3-3-3-|
-0-0-0-0-3-3-3-3-|

(chorus)

(Cause it's a deadly game...)

-----------------------------------------------------------------|
-----------------------------------------------------------------|
-----------------------------------------------------------------|
-----------------------------------------------------------------|
-5-5-5-5-3-3-3-3-0-0-0-0-1-1-1-1-5-5-5-5-3-3-3-3-0-0-0-0-1-1-1-1-|
-5-5-5-5-5-3-3-3-0-0-0-0-1-1-1-1-5-5-5-5-3-3-3-3-0-0-0-0-1-1-1-1-|

---------------------------------------------------------------------|
---------------------------------------------------------------------|
---------------------------------------------------------------------|
---------------------------------------------------------------------|
-5-5-5-5-3-3-3-3-10-10-10-10-8-8-8-8-0-0-0-0-0-0-0-0-0-0-0-0-3-3-3-3-|
-5-5-5-5-3-3-3-3-10-10-10-10-8-8-8-8-0-0-0-0-0-0-0-0-0-0-0-0-3-3-3-3-|

(verse)
-------------------------------------------------------------------|
-2-2-2-2-2-2-2-2-2-4-4-4-4-4-4-4-4-1-1-1-1-1-1-1-1-3-3-3-3-3-3-3-3-|
-3-3-3-3-3-3-3-3-3-5-5-5-5-5-5-5-5-3-3-3-3-3-3-3-3-0-0-0-0-0-0-0-0-|
-------------------------------------------------------------------|
-------------------------------------------------------------------|
-------------------------------------------------------------------|

(Two simple rules the devil hands us...)
-------------------------------------------------------------------|
-2-2-2-2-2-2-2-2-2-4-4-4-4-4-4-4-4-1-1-1-1-1-1-1-1-3-3-3-3-3-3-3-3-|
-3-3-3-3-3-3-3-3-3-5-5-5-5-5-5-5-5-3-3-3-3-3-3-3-3-0-0-0-0-0-0-0-0-|
-------------------------------------------------------------------|
-------------------------------------------------------------------|
-------------------------------------------------------------------|

------------------------------------------------------------------|
-2-2-2-2-2-2-2-2-4-4-4-4-4-4-4-4----------------------------------|
-3-3-3-3-3-3-3-3-5-5-5-5-5-5-5-5----------------------------------|
------------------------------------------------------------------|
--------------------------------0-0-0-0-0-0-0-0-0-0-0-0-0-0-0-0-0-|
--------------------------------0-0-0-0-0-0-0-0-0-0-0-0-0-0-0-0-0-|

-----------------|
-----------------|
-----------------|
-----------------|
-0-0-0-0-3-3-3-3-|
-0-0-0-0-3-3-3-3-|

(chorus #2)

(Cause it's a deadly game...)

-----------------------------------------------------------------|
-----------------------------------------------------------------|
-----------------------------------------------------------------|
-----------------------------------------------------------------|
-5-5-5-5-3-3-3-3-0-0-0-0-1-1-1-1-5-5-5-5-3-3-3-3-0-0-0-0-1-1-1-1-|
-5-5-5-5-5-3-3-3-0-0-0-0-1-1-1-1-5-5-5-5-3-3-3-3-0-0-0-0-1-1-1-1-|

---------------------------------------------------------------------|
---------------------------------------------------------------------|
---------------------------------------------------------------------|
---------------------------------------------------------------------|
-5-5-5-5-3-3-3-3-10-10-10-10-8-8-8-8-0-0-0-0-0-0-0-0-0-0-0-0-3-3-3-3-|
-5-5-5-5-3-3-3-3-10-10-10-10-8-8-8-8-0-0-0-0-0-0-0-0-0-0-0-0-3-3-3-3-|

(repeat)
(Cause it's a deadly game...)
-----------------------------------------------------------------|
-----------------------------------------------------------------|
-----------------------------------------------------------------|
-----------------------------------------------------------------|
-5-5-5-5-3-3-3-3-0-0-0-0-1-1-1-1-5-5-5-5-3-3-3-3-0-0-0-0-1-1-1-1-|
-5-5-5-5-5-3-3-3-0-0-0-0-1-1-1-1-5-5-5-5-3-3-3-3-0-0-0-0-1-1-1-1-|

---------------------------------------------------------------------|
---------------------------------------------------------------------|
---------------------------------------------------------------------|
---------------------------------------------------------------------|
-5-5-5-5-3-3-3-3-10-10-10-10-8-8-8-8-0-0-0-0-0-0-0-0-0-0-0-0-3-3-3-3-|
-5-5-5-5-3-3-3-3-10-10-10-10-8-8-8-8-0-0-0-0-0-0-0-0-0-0-0-0-3-3-3-3-|

(solo)

(g1)
-------------------------------------------------------------------|
-------------------------------------------------------------------|
-------------------------------------------------------------------|
-------------------------------------------------------------------|
-5-3-4-5-8-7--5-3-4-5-0-1------------------------------------------|
-5-3-4-5-8-7--5-3-4-5-0-1------------------------------------------|
 G2
-------------------------------------------------------------------|
-------------------------------------------------------------------|
--------------------------15t--14t--12t--11t--12vvvvvvvvvv---------|
-------------------------------------------------------------------|
-------------------------------------------------------------------|
-------------------------------------------------------------------|

(g1)
-------------------------------------------------------------------|
-------------------------------------------------------------------|
-------------------------------------------------------------------|
-------------------------------------------------------------------|
-5-3-4-5-8-7--5-3-4-5-0-1------------------------------------------|
-5-3-4-5-8-7--5-3-4-5-0-1------------------------------------------|
 G2
-------------------------------------------------------------------|
-------------------------------------------------------------------|
--------------------------15t--14t--12t--11t--15t--14t--11vvv/12---|
-------------------------------------------------------------------|
-------------------------------------------------------------------|
-------------------------------------------------------------------|

(verse)
(Judgement day calls in on markers...)

-------------------------------------------------------------------|
-2-2-2-2-2-2-2-2-2-4-4-4-4-4-4-4-4-1-1-1-1-1-1-1-1-3-3-3-3-3-3-3-3-|
-3-3-3-3-3-3-3-3-3-5-5-5-5-5-5-5-5-3-3-3-3-3-3-3-3-0-0-0-0-0-0-0-0-|
-------------------------------------------------------------------|
-------------------------------------------------------------------|
-------------------------------------------------------------------|

------------------------------------------------------------------|
-2-2-2-2-2-2-2-2-4-4-4-4-4-4-4-4----------------------------------|
-3-3-3-3-3-3-3-3-5-5-5-5-5-5-5-5----------------------------------|
------------------------------------------------------------------|
--------------------------------0-0-0-0-0-0-0-0-0-0-0-0-0-0-0-0-0-|
--------------------------------0-0-0-0-0-0-0-0-0-0-0-0-0-0-0-0-0-|

-----------------|
-----------------|
-----------------|
-----------------|
-0-0-0-0-3-3-3-3-|
-0-0-0-0-3-3-3-3-|

(chorus #3)

(Cause it's a deadly game...)
-----------------------------------------------------------------|
-----------------------------------------------------------------|
-----------------------------------------------------------------|
-----------------------------------------------------------------|
-5-5-5-5-3-3-3-3-0-0-0-0-1-1-1-1-5-5-5-5-3-3-3-3-0-0-0-0-1-1-1-1-|
-5-5-5-5-5-3-3-3-0-0-0-0-1-1-1-1-5-5-5-5-3-3-3-3-0-0-0-0-1-1-1-1-|

---------------------------------------------------------------------|
---------------------------------------------------------------------|
---------------------------------------------------------------------|
---------------------------------------------------------------------|
-5-5-5-5-3-3-3-3-10-10-10-10-8-8-8-8-0-0-0-0-0-0-0-0-0-0-0-0-3-3-3-3-|
-5-5-5-5-3-3-3-3-10-10-10-10-8-8-8-8-0-0-0-0-0-0-0-0-0-0-0-0-3-3-3-3-|

(repeat)
-----------------------------------------------------------------|
-----------------------------------------------------------------|
-----------------------------------------------------------------|
-----------------------------------------------------------------|
-5-5-5-5-3-3-3-3-0-0-0-0-1-1-1-1-5-5-5-5-3-3-3-3-0-0-0-0-1-1-1-1-|
-5-5-5-5-5-3-3-3-0-0-0-0-1-1-1-1-5-5-5-5-3-3-3-3-0-0-0-0-1-1-1-1-|

(g1)
-----------------------------------------------------------------------------|
-----------------------------------------------------------------------------|
-----------------------------------------------------------------------------|
-----------------------------------------------------------------------------|
-5-5-5-5-3-3-3-3-10-10-10-10-8-8-8-8-0-0-0-0-0-0-0-0-0-0-0-0-0-0-0-0-0-0-0-0-|
-5-5-5-5-3-3-3-3-10-10-10-10-8-8-8-8-0-0-0-0-0-0-0-0-0-0-0-0-0-0-0-0-0-0-0-0-|

(g2)
-----------------------------------------------------------------------------|
-----------------------------------------------------------------------------|
--------------------------------------15t--14t--12t--11t--15t--14t--12t--11--|t
-----------------------------------------------------------------------------|
-----------------------------------------------------------------------------|
-----------------------------------------------------------------------------|

(g1)
-----------------------------------------------------------------------------|
-----------------------------------------------------------------------------|
-----------------------------------------------------------------------------|
-----------------------------------------------------------------------------|
-0-0-0-0-0-0-0-5-3-4-5-8-7---5--3--5vvvv-------------------------------------|
-0-0-0-0-0-0-0-5-3-4-5-8-7---5--3--5vvvv-------------------------------------|

(g2)
-----------------------------------------------------------------------------------|
-----------------------------------------------------------------------15t--14t----|
11vvvvvvvvvvvvv--12-10-12vvvv------------------------------------------------------|
-----------------------------------------------------------------------------------|
-----------------------------------------------------------------------------------|
-----------------------------------------------------------------------------------|
Colaboração e revisão:
  • Vinicius Sales
144 exibições
    • ½ Tom
    • A
    • Bb
    • B
    • C
    • Db
    • D
    • Eb
    • E
    • F
    • F#
    • G
    • Ab
  • Adicionar à lista

    0 comentários

    Mostrar mais comentários

    Conseguiu tocar?

    1 Tocaram 0 Ainda não

    Grave um vídeo tocando Deadly Game e mande pra gente!

    00:00 / 00:00
    outros vídeos desta música
    repetir qualidade Automático
    Outros vídeos desta música
    00:00 / 00:00
    Automático
    OK