Cifra Club

Aprenda

Sounds Of Laughter

Tsol

Tab de baixo: Principal
Tabbed By : Chris (The-Kicks)
e-mail: *
Tuning: Standard

| /  slide up
| \  slide down
| h  hammer-on
| p  pull-off
| ~  vibrato
| +  harmonic
| x  Mute note


This is a great song by an excellent punk band. The song itself is rather simple to 
so go ahead and learn it.

Intro:
G|-----------------|
D|-----------------| X20
A|-2-2-2-2-2-2-2-2-|
E|-----------------|


Verse - "I can hear the sounds of laughter..."

G|-----------------------------------------------------------------|
D|-----------------------------------------------------------------| X4
A|-2-2-2-2-2-2-2-2-3-3-3-3-3-3-3-3-0-0-0-0-0-0-0-0-5-5-5-5-5-5-5-5-|
E|-----------------------------------------------------------------|

Instrumental:

G|-------------------------------------|
D|-------------------------------------| X3
A|-16-16-16-16-19-19-19-19-19-19-19-19-|
E|-------------------------------------|

G|-------19----------------------------|
D|-16-16----16-12-12-12-12-12-12-12-12-| X3
A|-------------------------------------|
E|-------------------------------------|

G|-------19-------|
D|-16-16----16-12-|
A|----------------|
E|----------------|

Intro:
G|-----------------|
D|-----------------| X20
A|-2-2-2-2-2-2-2-2-|
E|-----------------|

Verse 2 - "Lights Are Flashin, Colours Are Burning..."

G|--------------------------------------|
D|-----44444----55555-----22222---77777-| X4
A|-222-------333------000------555------|
E|--------------------------------------|

Instrumental:

G|-------------------------------------|
D|-------------------------------------| X3
A|-16-16-16-16-19-19-19-19-19-19-19-19-|
E|-------------------------------------|

G|-------19----------------------------|
D|-16-16----16-12-12-12-12-12-12-12-12-| X3
A|-------------------------------------|
E|-------------------------------------|

G|----------------------------------------------------------|  |
D|-11-11-11-11-11-11-11-11-11-11-11-11-11-11-11-11-99999999-|  |
A|----------------------------------------------------------|  |
E|----------------------------------------------------------|  |
                                                               | X4
G|-----------------------------------------------------|       |
D|-14-14-14-14-14-14-14-14-----------------------------|       |
A|-------------------------(12-12-12-12-12-12-12-12)X4-|       |
E|-----------------------------------------------------|       |


Intro:
G|-----------------|
D|-----------------| X20
A|-2-2-2-2-2-2-2-2-|
E|-----------------|


Verse 3 - " I Can Hear The Sounds of Laughter..."

G|--------------------------------------|
D|-----44444----55555-----22222---77777-| X4
A|-222-------333------000------555------|
E|--------------------------------------|

Instrumental/ Ending:

G|-------------------------------------|
D|-------------------------------------| X3
A|-16-16-16-16-19-19-19-19-19-19-19-19-|
E|-------------------------------------|

G|-------19----------------------------|
D|-16-16----16-12-12-12-12-12-12-12-12-| X3
A|-------------------------------------|
E|-------------------------------------|

G|-------19-------|
D|-16-16----16-12-|
A|----------------|
E|----------------|


SONG ORDER:

INTRO
VERSE
INSTRUMENTAL
INTRO
VERSE 2
INSTRUMENTAL
INTRO
VERSE 3
INSTRUMENTAL/ENDING

LYRICS:
I can hear the sounds of laughter
Could it be they're laughing at me
I can hear the roar of thunder
I'm mad I'm deranged
I see
Clown in costumes voices that carry
Their message to my mind I'm
Like a child so young and carefree
My eyes see what they want to see
Lights are flashing. Colors are blurring
There are patterns in my mind
Things are hidden to the world around me
But still they say I'm blind
Wrap me up in a web of lies
Meet the man who's locked inside
I'm too many people in too many places
I've a split personality

============================================================================
Compositor não encontrado.
94 exibições

0 comentários

Ver todos os comentários

Conseguiu tocar?

0 Tocaram 0 Ainda não

Grave um vídeo tocando Sounds Of Laughter e nos envie!

00:00 / 00:00
Outros vídeos desta música
Repetir Qualidade Automático
Outros vídeos desta música
00:00 / 00:00
Automático

Cifra Club Pro

Aproveite o Cifra Club com benefícios exclusivos e sem anúncios
Cifra Club Pro
Aproveite o Cifra Club com benefícios exclusivos e sem anúncios
OK