Cifra Club

Aprenda

Runnin' with the devil

Van Halen

Tab de baixo: Principal
Intro/Chorus

G|---------------|-------------|-------------|-------------| 
D|---------------|-------------|-------------|-------------| 
A|---------------|-------------|-------------|-------------| 
E|--0--0--0--0---|-0--0--0--12\|-0--0--0--0--|-0--0--0--0--| 

G|---------------|-------------|-------------|-------------| 
D|---------------|-------------|-------------|-------------| 
A|---------------|-------------|-------------|-------------| 
E|--0--0--0--0---|-0--0--0--12\|-0--0--0--0--|-0--0--0--0--| 

G|---------------|--------------|
D|---------------|--------------|
A|---------------|--------------|
E|--0--0--0--0---|-0--0--0--2-3-|

Verse
G|---------------|-------------|-------------|-------------| 
D|---------------|-------------|-------------|-------------| 
A|---------------|-------------|-------------|-------------| 
E|-5-3-5--5--5---|-5--5--5--5--|-5-3-5-5--5--|-5--5--0-----| 

G|---------------|-------------|-------------|-------------| 
D|---------------|-------------|-------------|-------------| 
A|---------------|-------------|-------------|-------------| 
E|-5--5--5--5----|-3--3--3--3--|-5--5--5--5--|-3--3--0-----|

Solo
G|-------------|------------|-----------|-------------| 
D|-------------|------------|-----------|-------------| 
A|-------------|------------|-----------|-------------| 
E|-5-5-5-55----|-0--0--0----|-5-5-5-55--|-0--0--0-----| 

G|-------------|------------|-----------|-------------| 
D|-------------|------------|-----------|-------------| 
A|-------------|------------|-----------|-------------| 
E|-5-5-5-55----|-0--0--0----|-5-5-5-55--|-0--0--0-----|
Composição de Alex Van Halen / David Lee Roth / Eddie Van Halen / Michael Anthony
Colaboração e revisão:
  • Gabriel Leite
1.036 exibições

0 comentários

Ver todos os comentários

Conseguiu tocar?

0 Tocaram 0 Ainda não

Grave um vídeo tocando Runnin' with the devil e nos envie!

00:00 / 00:00
Outros vídeos desta música
Repetir Qualidade Automático
Outros vídeos desta música
00:00 / 00:00
Automático

Cifra Club Pro

Aproveite o Cifra Club com benefícios exclusivos e sem anúncios
Cifra Club Pro
Aproveite o Cifra Club com benefícios exclusivos e sem anúncios
OK