Cifra Club

Aprenda

Lembranças de Amor

Victor e Leo

Cifra: Versão 3 (violão e guitarra)
tom: D
Intro: D Bm D Bm A
                      D                      Bm
e|--5-5------------------5-5---------------------------------------|
B|------7-7-5-5-3-5/7--------7-7-5-5-3-3/5--3-----3-3--------------|
G|--------------------------------------------4-------4-4--2-2---2-|
D|-------------------------------------------------------------4---|
A|-----------------------------------------------------------------|
E|-----------------------------------------------------------------|

                    G           A
e|---------------------------------------------------------------|
B|--3-3----------------------------------------------------------|
G|-----4-4-2-2--2/4------2-4-4/6---------------------------------|
D|------------4-------4------------------------------------------|
A|---------------------------------------------------------------|
E|---------------------------------------------------------------|

Bm        G
Veja só

Sei que palavras não consertam nada
                D
Mas eu acho que é melhor
         A
A gente conversar
   
Bm    
Afinal
G                                                D
O nosso caso não difere de outros casos, que acabaram mal        
         A
E só pra te lembrar
          G
Eu já sofri demais
                 A
Mas  longe de você
              D         A
Sofrerei bem mais

          D (abafado)                               Em
      Preciso te dizer o que acontece com meu sentimento
                A
R     Chego em casa, não te vejo
e                                 Bm
f     O meu desejo é te ligar correndo
r        D                                          Em  
ã     E pouco a pouco, a solidão e o silêncio me abraçam
o                G
      Minha alegria passou
                 A                   Bm         A 
      Só as lembranças de amor, não passam

(Introdução):
                    D                      Bm
e|--5-5------------------5-5------------------------------------------|
B|------7-7-5-5-3-5/7--------7-7-5-5-3-3/5--3-------3-3---------------|
G|--------------------------------------------4--------4-4--2-2---2---|
D|--------------------------------------------------------------4-----|
A|--------------------------------------------------------------------|
E|--------------------------------------------------------------------|

                    G           A
e|---------------------------------------------------------------|
B|--3-3----------------------------------------------------------|
G|-----4-4-2-2--2/4------2-4-4/6---------------------------------|
D|------------4-------4------------------------------------------|
A|---------------------------------------------------------------|
E|---------------------------------------------------------------|

Bm       G              
Afinal                  
                        
O nosso caso não difere de outros casos
        D                
Que acabaram mal      
                        
          A
E só pra te lembrar
          G              (Apartir do Sol, tocar sempre para baixo!)
Eu já sofri demais
                 A
Mas  longe de você
              D  A
Sofrerei bem maaaaaaais

*Refrão: 2 vezes

          D (abafado)                               Em
      Preciso te dizer o que acontece com meu sentimento
                A
R     Chego em casa, não te vejo
e                                 Bm
f     O meu desejo é te ligar correndo
r        D                                          Em  
ã     E pouco a pouco, a solidão e o silêncio me abraçam
o                G
      Minha alegria passou
                 A                   Bm 
      Só as lembranças de amor, não passam


    D (abafado)                               Em
Preciso te dizer o que acontece com meu sentimento
          A
Chego em casa, não te vejo
                             Bm       e|---7-5-----------------|
O meu desejo é te ligar correndo      B|-7-----5-8/7---5-3-2-3-|

   D                                          Em  
E pouco a pouco, a solidão e o silêncio me abraçam
           G            e|-----10-9-----|
Minha alegria passou    B|--10------10--|

          A                 e|-----10-9-----|
Só as lembranças de amor,   B|--10------10--|

     Bm           G      A    D
não passam
Composição de Victor Chaves
489.781 exibições
  • Simplificar cifra
    • ½ Tom
    • A
    • Bb
    • B
    • C
    • Db
    • D
    • Eb
    • E
    • F
    • F#
    • G
    • Ab
  • Adicionar à lista

    0 comentários

    Ver todos os comentários

    Conseguiu tocar?

    2 Tocaram 1 Ainda não

    Grave um vídeo tocando Lembranças de Amor e nos envie!

    00:00 / 00:00
    outros vídeos desta música
    repetir qualidade Automático
    Outros vídeos desta música
    00:00 / 00:00
    Automático
    Capítulos
    • Início
    • Tocando a música
    • Acordes da introdução
    • Tocando introdução
    • Ensinando ritmo da introdução
    • Ensinando solo da intro (parte 1)
    • Ensinando solo da intro (parte 2)
    • Ensinando solo da intro (parte 3)
    • Ensinando solo da intro (parte 4 e 5)
    • Tocando solo (tablatura)
    • Acordes da primeira parte
    • Tocando primeira parte
    • Ensinando ritmo da primeira parte (parte 1)
    • Ensinando passagem (violão 1)
    • Ensinando ritmo da primeira parte (parte 2)
    • Ensinando primeira parte (violão solo)
    • Acordes da segunda parte
    • Tocando segunda parte
    • Ensinando ritmo da segunda parte
    • Ensinando segunda parte (violão solo)
    • Acordes do refrão
    • Tocando refrão
    • Ensinando ritmo do refrão
    • Ensinando refrão (violão solo)
    • Tocando repetição
    • Ensinando variação (violão solo)
    • Ensinando passagens finais (violão solo)
    • Encerramento

    Cifra Club Pro

    Aproveite o Cifra Club com benefícios exclusivos e sem anúncios
    Cifra Club Pro
    Aproveite o Cifra Club com benefícios exclusivos e sem anúncios
    OK