Notificações Amigos pendentes

      Victor e Leo

      Lembranças de Amor

      1.300.262 exibições
      Tom: D (com acordes na forma de C) Capotraste na 2ª casa
      Intro: C Am7 (2x) G
      
      Primeira parte:
       Am7    F
      Veja só
      Sei que palavras não consertam nada mais
                  C
      Eu acho que é melhor
               G
      A gente conversar
      
      Am7     F
      Afinal
      Nosso caso não difere de outros casos
              C
      que acabaram mal
              G
      Só pra te lembrar
      
      Dois violões:
      
      E|----------------
      B|-2h3h2----------
      G|-----------2----
      D|-------2h4------
      A|----------------
      E|----------------
      
      
      Violão solo:
      
        Am7   F     C
      E|-----5/7----------------------
      B|---3----------------------7---
      G|--------------7-7-7-7-7-7---7-
      D|------------------------------
      A|------------------------------
      E|------------------------------
      
      
      Dois violões:
      
         G
      E|--5---5--5-----5-
      B|--5---3--2-----2-
      G|--2---2--2--4--2-
      D|--2---------0----
      A|--4--------------
      E|--5--------------
      
      
      Segunda parte:
                F                         G
      Eu já sofri demais, mas longe de você
                    C   G4
      sofrerei bem maaa-ais...
      
      Violão solo:
      
      E|---------------------------------
      B|---------------------------------
      G|---------------------------------
      D|---------------------------------
      A|-5-5-5-5-5-5-5-5-5-5-5-5-5-5-5-5-
      E|---------------------------------
      
      
      E|-----------------------------------
      B|-----------------------------------
      G|-----------------------------------
      D|-----------------------------------
      A|-5/7-7-7-7-7-7-7-7-7-7-7-7-7-7-7-7-
      E|-----------------------------------
      
      
      E|-----------------------------------
      B|-----------------------------------
      G|-----------------------------------
      D|-----------------------------------
      A|-7/9-9-9-9-9-9-9-9-9-9-9-9-9-9-9-9-
      E|-----------------------------------
      
      
      E|-----------------------------------
      B|-----------------------------------
      G|-----------------------------------
      D|-7-7-7-7-7-7-7-7-7-7-7-7-7-7-7-7---
      A|-----------------------------------
      E|-----------------------------------
      
      
      Refrão:
          C
      Preciso te dizer o que acontece
                    Dm7
      com meu sentimento
                G
      Chego em casa e não te vejo
                                Am7
      Meu desejo é te ligar correndo
         C
      E pouco a pouco a solidão e
                       Dm7
      o silêncio me abraçam
                 F
      Minha alegria passou
                 G                        Am7  C
      Só as lembranças de amor... não passam
      
      frase violão solo no trecho "minha alegria passou..."
      
      
          F           G
      E|------------------------
      B|------------------------
      G|------7---7------9---9--
      D|--7h9---9------9---9----
      A|------------------------
      E|------------------------
      
      
      Intro: C  Am7  (2x) G
      
      Am7     F
      Afinal
      Nosso caso não difere de outros casos
              C
      que acabaram mal
              G
      Só pra te lembrar
      
      frase violão solo no trecho "afinal..."
      
      
         Am        F     C
      E|------7-----------------------------
      B|---7----10-8--------------------7-----
      G|-------------------7-7-7-7--7-7---7---
      D|--------------------------------------
      A|--------------------------------------
      E|--------------------------------------
      
                         pm...........
      
      (repete segunda parte)
      (repete refrão 2x)
      
      Violão solo - repetição do refrão:
      
        Am7
      E|-------7---------------------------------------
      B|---5h7-------8---------------------------------
      G|---------6h7----9-7-6-7------------------------
      D|-----------------------------------------------
      A|-----------------------------------------------
      E|-----------------------------------------------
      
      
      "minha alegria passou..."
      
        F           G
      E|---7-10-9-----------10-9-----------------------
      B|----------8-----10-------10--------------------
      G|-----------------------------------------------
      D|-----------------------------------------------
      A|-----------------------------------------------
      E|-----------------------------------------------
      
      
      Final: Am7  F  C
        Composição: Victor ChavesColaboração e revisão:
        • PROFº WAGNER
        • -•{..ArThur..}•-
        • thai
        • marvin
        • +2

        Comentários 35

        140 .
        • Jefferson Jefferson: Em 05/07/2014 22:59

          Erro aos 12 min na quinta parte do solo. O Fofão toca a quarta corda solta, na legenda aparece a quarta corda pressionada na quarta casa.

        • JOSE ROBERTO DE JOSE ROBERTO DE: Em 14/01/2014 17:48

          muito boa a video aula parabens

        • luiz gabriel luiz gabriel: Em 29/08/2013 22:36

          facil

        • bilizin bilizin: Em 18/09/2012 04:06

          Facil de++ o foda é qui vicia ,o solinho é mt loko kk

        • pretinhoooooo pretinhoooooo: Em 11/05/2012 15:11

          Essa foi a primeira musica que eu aprendi a tocar, em 2008 =)
          boa.

        • lucassmith lucassmith: Em 05/04/2012 22:23

          Música muito boa. Vcs sao feras. Vlw ae.!

        • paraguayy paraguayy: Em 20/03/2012 15:06

          toca simplificado vcs q nao tem cp

        • TiagoBoeing2007 TiagoBoeing2007: Em 01/02/2012 22:36

          Música no tom original é tocada em: Bm (si menor)
          Pode conferir com o clipe, em Am (lá menor) só usando capotraste

        • sherek1 sherek1: Em 26/01/2012 16:17

          E verdade prefiro tocalas sem contrapeste

        140 cancelar
        0:00 / 0:00
        1 versão de baixo exibições contribuição e correção
        play/pausefechar subir/descer velocidade
        6ª corda E5ª corda A4ª corda D3ª corda G2ª corda B1ª corda E
          acordes
          publicidade
          fechar
          ok