Cifra Club

Lembranças de Amor

Victor e Leo

Cifra: Principal (violão e guitarra)
tom: D (forma dos acordes no tom de C) Capotraste na 2ª casa
[Intro] C  Am7  C  Am7  G

[Tab - Solo Intro sem capo]

E|----------------------------------------------|
B|-10-10-7-7-5-5-3-5/7-7--10-10-7-7-5-5-3-3/5-3-|
G|----------------------------------------------|
D|----------------------------------------------|
A|----------------------------------------------|
E|----------------------------------------------|

E|----------------------------------------------|
B|----------------------------------------------|
G|-7-7-4-4-------------7-7-4-4------------------|
D|---------7-7-4-4/7-----------7-7-4-4/9--------|
A|----------------------------------------------|
E|----------------------------------------------|

E|----------------------------------------------|
B|------10-12-14~---12\10-----------------------|
G|--7/9-----------------------------------------|
D|----------------------------------------------|
A|----------------------------------------------|
E|----------------------------------------------|

[Primeira Parte] 

 Am7    F
Veja só

Sei que palavras não consertam nada mais
            C
Eu acho que é melhor
         G
A gente conversar

Am7    F
Afinal

Nosso caso não difere de outros casos
        C
que acabaram mal
        G
Só pra te lembrar

[Tab - Riff]

E|----------------|
B|-2h3h2----------|
G|-----------2----|
D|-------2h4------|
A|----------------|
E|----------------|

[Tab - Solo violão solo]

  Am7   F     C
E|-----5/7----------------------|
B|---3----------------------7---|
G|--------------7-7-7-7-7-7---7-|
D|------------------------------|
A|------------------------------|
E|------------------------------|

[Tab - Riff]

   G
E|--5---5--5-----5-|
B|--5---3--2-----2-|
G|--2---2--2--4--2-|
D|--2---------0----|
A|--4--------------|
E|--5--------------|

[Segunda Parte] 

          F                         G
Eu já sofri demais, mas longe de você
              C  G4
sofrerei bem ma__ais

[Tab - Solo Violão]

E|---------------------------------|
B|---------------------------------|
G|---------------------------------|
D|---------------------------------|
A|-5-5-5-5-5-5-5-5-5-5-5-5-5-5-5-5-|
E|---------------------------------|

E|-----------------------------------|
B|-----------------------------------|
G|-----------------------------------|
D|-----------------------------------|
A|-5/7-7-7-7-7-7-7-7-7-7-7-7-7-7-7-7-|
E|-----------------------------------|

E|-----------------------------------|
B|-----------------------------------|
G|-----------------------------------|
D|-----------------------------------|
A|-7/9-9-9-9-9-9-9-9-9-9-9-9-9-9-9-9-|
E|-----------------------------------|

E|-----------------------------------|
B|-----------------------------------|
G|-----------------------------------|
D|-7-7-7-7-7-7-7-7-7-7-7-7-7-7-7-7---|
A|-----------------------------------|
E|-----------------------------------|

[Refrão] 

    C
Preciso te dizer o que acontece
              Dm7
com meu sentimento
          G
Chego em casa e não te vejo
                          Am7
Meu desejo é te ligar correndo
   C
E pouco a pouco a solidão e
                 Dm7
o silêncio me abraçam
           F
Minha alegria passou
           G                     Am7  C
Só as lembranças de amor não passam

frase violão solo no trecho "minha alegria passou"

[Tab - Riff]

    F           G
E|------------------------|
B|------------------------|
G|------7---7------9---9--|
D|--7h9---9------9---9----|
A|------------------------|
E|------------------------|

( C  Am7  C  Am7  G )

Am7    F
Afinal

Nosso caso não difere de outros casos
        C
que acabaram mal
        G
Só pra te lembrar

frase violão solo no trecho "afinal"

   Am        F     C
E|------7-------------------------------|
B|---7----10-8--------------------7-----|
G|-------------------7-7-7-7--7-7---7---|
D|--------------------------------------|
A|--------------------------------------|
E|--------------------------------------|
                   pm...........

(repete segunda parte)

Repete Refrão 2x

[Tab - Violão solo - repetição do refrão]

  Am7
E|-------7---------------------------------------|
B|---5h7-------8---------------------------------|
G|---------6h7----9-7-6-7------------------------|
D|-----------------------------------------------|
A|-----------------------------------------------|
E|-----------------------------------------------|

"minha alegria passou..."

  F           G
E|---7-10-9-----------10-9-----------------------|
B|----------8-----10-------10--------------------|
G|-----------------------------------------------|
D|-----------------------------------------------|
A|-----------------------------------------------|
E|-----------------------------------------------|

[Final] Am7  F  C
00:00 / 00:00
Outros vídeos desta música
Repetir
Outros vídeos desta música
Composição de Victor Chaves
1.612.853 exibições
  • Simplificar cifra
    • ½ Tom
    • A
    • Bb
    • B
    • C
    • Db
    • D
    • Eb
    • E
    • F
    • F#
    • G
    • Ab
  • Adicionar à lista

    0 comentários

    Ver todos os comentários

    Conseguiu tocar?

    90 Tocaram 2 Ainda não

    Grave um vídeo tocando Lembranças de Amor e nos envie!

    Entre para oCifra Club PRO

    Tenha acesso a benefícios exclusivos no App e no Site

    • Chega de anúncios

    • Prioridade de compra em lançamentos

    • Mais recursos no app do Afinador

    • Atendimento Prioritário

    • Descontos nos produtos Cifra Club

    • Ajude a produzir mais conteúdo

    00:00 / 00:00
    Capítulos
    • Início
    • Tocando a música
    • Acordes da introdução
    • Tocando introdução
    • Ensinando ritmo da introdução
    • Ensinando solo da intro (parte 1)
    • Ensinando solo da intro (parte 2)
    • Ensinando solo da intro (parte 3)
    • Ensinando solo da intro (parte 4 e 5)
    • Tocando solo (tablatura)
    • Acordes da primeira parte
    • Tocando primeira parte
    • Ensinando ritmo da primeira parte (parte 1)
    • Ensinando passagem (violão 1)
    • Ensinando ritmo da primeira parte (parte 2)
    • Ensinando primeira parte (violão solo)
    • Acordes da segunda parte
    • Tocando segunda parte
    • Ensinando ritmo da segunda parte
    • Ensinando segunda parte (violão solo)
    • Acordes do refrão
    • Tocando refrão
    • Ensinando ritmo do refrão
    • Ensinando refrão (violão solo)
    • Tocando repetição
    • Ensinando variação (violão solo)
    • Ensinando passagens finais (violão solo)
    • Encerramento

    Cifra Club Pro

    Aproveite o Cifra Club com benefícios exclusivos e sem anúncios
    Cifra Club Pro
    Aproveite o Cifra Club com benefícios exclusivos e sem anúncios
    OK