Notificações Amigos pendentes

      Victor e Leo

      Fotos

      3.498.167 exibições
      Tom: C
      (intro 2x) C G Am F
      
      (violâo 1)
      
      E|------------15-|----------10-|---------5-|---------1--------|
      B|---------------|-------------|-----5-----|-----1------------|
      G|-------12------|------7------|---5---5---|---2---2----------|
      D|----14---14----|----9---9----|-7---------|-3----------------|
      A|-15------------|-10----------|-----------|------------------|
      E|---------------|-------------|-----------|------------------|
      
      
      (violão 2)
      
      E|-------------------------------------------------------------------------------------------------|
      B|-------------------------------------------------------------------------------------------------|
      G|-------------------------------------------------------------------------------------------------|
      D|-14-14-14-14-14-14-14-14-14-14/12-12-12-12-12-12-12-12-12/10-10-10-10-10-10-10-10-10/7-7-7-7-7-7-|
      A|-------------------------------------------------------------------------------------------------|
      E|-------------------------------------------------------------------------------------------------|
      
      
      (dedilhado durante a música):
      
      (violão 1)
      
      E|-----15-----------------10--------------5-------------1------------------|
      B|------------------------------------------5------------------------------|
      G|---------12----(4x)--------7-----(4x)--------5-(4x)-----3-------(4x)-----|
      D|------------14---------------9--------7-------------3-------3------------|
      A|--15----------------10---------------------------------------------------|
      E|-------------------------------------------------------------------------|
      
      
      (violão 2: continua com o mesmo solo)
      
      C                         G
      Joguei fora fotos de nós dois
                               Am
      Reviver você não me faz bem
                                  F
      Nem vai me trazer o que já foi
                                C
      Você mudou muito e eu também
                                G
      Finjo que o tempo não passou
                                   Am
      Busco em outros olhos ver você
                                 F
      Fotos do que foi o nosso amor
                                    C
      Não revelam outra pessoa pra ser
      
      (violão 2)
      
      E|-15--15--15--|
      B|-15--15--15--|
      
      
      (refrão)
      C               G
      Uma vida pra tirar você da minha
      Am                  F               C
      Só seus flashes disparam o meu coração
                           G
      Já rasguei as fotos mas em pensamento
      Dm                    F           C
      Guardo cópias do seu beijo e solidão
      
      (solo base) C G Am F
          7x                          3x       3x       4x  4x  5x
      
      E|----------10-10----------------8--7-5--13--12-8--8--10--12----0---1-----|
      B|--8-------12-12---8----8-10---10--8-6--13--13-8--8--12--13----1---1-----|
      G|--9---------------9----9--9-----------------------------------2---2-----|
      D|--------------------------------------------------------------2---2-----|
      A|--------------------------------------------------------------0---3-----|
      E|------------------------------------------------------------------1-----|
      
      
      (repete refrão)
      
      (repete tudo)
      
      (solo feito durante o refrão - violão 2)
      
          C                G                Am             F
      E|-------------15---------------15------------12--------------13-|
      B|-------13---------------15---------------13-------------13-----|
      G|-12-12----12------16-16----16------14-14---14-----14-14---14---|
      D|---------------------------------------------------------------|
      A|---------------------------------------------------------------|
      E|---------------------------------------------------------------|
      
      
          C                G                Dm             F
      E|-------------15---------------15------------13--------------13-|
      B|-------13---------------15---------------15-------------13-----|
      G|-12-12----12------16-16----16------14-14---14-----14-14---14---|
      D|---------------------------------------------------------------|
      A|---------------------------------------------------------------|
      E|---------------------------------------------------------------|
      
        Composição: Victor ChavesColaboração e revisão:
        • tajesus
        • marcelo_18
        • THULIO MELO
        • Bernardo
        • +6

        Comentários 34

        140 .
        • maria maria: Em 07/03/2015 12:53

          ti facil

        • caioaugusto.santos.1232 caioaugusto.santos.1232: Em 14/06/2014 17:19

          tao facil e as pessoas morrendo nas pestanas

        • Lucas Lucas: Em 25/01/2014 16:17

          tranquila essa musica ^^

        • Maria Eduarda Maria Eduarda: Em 04/01/2014 05:21

          n sei faze r pestana posso substituir outro acorde??

          • Mariana Mariana: Em 21/01/2014 16:11

            usa c decendo o dedo dois o três para a corda 3 e 4 eu faço assim com o F

          • mgn mgn: Em 17/10/2015 16:20

            voce nao consegue hoje, vai treinando o dedo fica com calo ate e vc vai conseguir, pestana é uma parte importante pra tocar violao abraço.

        • Mariana Mariana: Em 02/01/2014 15:44

          Por que tão fácil? rs'

        • mateus.melo.58323 mateus.melo.58323: Em 22/11/2013 22:35

          musica foda demais!!!! solo muito maneiro!!!

        • ivonj22 ivonj22: Em 18/08/2013 00:20

          por favor me tirem ess curiosidade pois tenho quase certeza que vcs tem descriminacao contra eles

        • ivonj22 ivonj22: Em 18/08/2013 00:18

          cifra club me responde uma coisa vcs tem descriminacao com zeze de camargo e luciano que nao gravam musicas dels

        140 cancelar
        0:00 / 0:00
        Esta versão de cifra não é usada na videoaula. Exiba a cifra correta.
        play/pausefechar subir/descer velocidade
        6ª corda E5ª corda A4ª corda D3ª corda G2ª corda B1ª corda E
          acordes
          publicidade
          fechar
          ok