Cifra Club

Aprenda

Amigo Apaixonado

Victor e Leo

Cifra: Principal (violão e guitarra)
tom: G
[Intro] Am9  D4  C  D4
        Am9  D4  C  D4

E|-7--------7-------------------------------|
B|-5------5---5-----------------------------|
G|-5----5-------0---------------------------|
D|-7--7-------------------------------------|
A|-7----------------------------------------|
E|-5----------------------------------------|

E|-5--------5-------------------------------|
B|-3------3---3-----------------------------|
G|------0-------0---------------------------|
D|----4-------------------------------------|
A|-5----------------------------------------|
E|------------------------------------------|

E|-3--------3-------------------------------|
B|-1------1---------------------------------|
G|-0----0-----0-----------------------------|
D|----2-------------------------------------|
A|-3----------------------------------------|
E|------------------------------------------|

E|-----5-----5------------------------------|
B|-------3-----3----------------------------|
G|---------0-----0--------------------------|
D|------------------------------------------|
A|-3/5-------------5------------------------|
E|------------------------------------------|

E|---------7------5-------5-----------------|
B|-------5---5----3-----3---3---------------|
G|-----5-------0--0---0-------0-------------|
D|---7--------------4-----------------------|
A|-7--------------5-------------------------|
E|------------------------------------------|

E|-3-------3-----5--------------------------|
B|-1-----1---------3------------------------|
G|-0---0------------------------------------|
D|---2--------------------------------------|
A|-3---------3/5----------------------------|
E|------------------------------------------|

[Primeira Parte]

          G5                      D/F#
Pensando bem eu gosto mesmo de você
                         Em
Pensando bem quero dizer
    Am/C               D5
Que amo ter te conhecido
         G5                       D/F#
Nada melhor que eu deixar você saber
                           Em
Pois é tão triste esconder
    Am/C               D5
Um sentimento tão bonito

[Segunda Parte]

      C
Hoje mesmo vou te procurar
G
   Falar de mim
         C
Sei que nem chegou a imaginar
          G                     D
Que eu pudesse te amar tanto assim

[Refrão]

G                 D/F#        Em
  Sempre fui um grande amigo seu
                C                 G
Só que não sei mais se assim vai ser
              D            C
Sempre te contei segredos meus
             D          G
Estou apaixonado por você
              D/F#       Em
Esse amor entrou no coração
                C              G
Agora diz o que é que a gente faz
            D            C
Pode dizer sim ou dizer não
             D           
Ser só seu amigo não dá mais

( G5 )

[Solo] G  D/F#  Em  C
       G  D  C  D

E|-------15-------15-------15----17-------17|
B|-10/12----12-12----12-12----15----15-15---|
G|------------------------------------------|
D|------------------------------------------|
A|------------------------------------------|
E|------------------------------------------|

E|-------17-------15--------15--------------|
B|-15-15----12-12----12-12-----12-----------|
G|------------------------------------------|
D|------------------------------------------|
A|------------------------------------------|
E|------------------------------------------|

E|-15\14-14-14\12-12\10--10\7-7\5-5-5-------|
B|------------------------------------------|
G|------------------------------------------|
D|------------------------------------------|
A|------------------------------------------|
E|------------------------------------------|

E|-----5/7-7-5--------------------------8/10|
B|-7-8---------8-8-8-8-10-10b12r10-8---8----|
G|-----------------------------------9------|
D|------------------------------------------|
A|------------------------------------------|
E|------------------------------------------|

E|-7\5--5\3--3------------------------------|
B|------------------------------------------|
G|-7\5--5\4--4------------------------------|
D|------------------------------------------|
A|------------------------------------------|
E|------------------------------------------|

[Primeira Parte]

         G                        D/F#
Nada melhor que eu deixar você saber
                          Em
Pois é tão triste esconder
    Am               D
Um sentimento tão bonito

[Segunda Parte]

      C
Hoje mesmo vou te procurar
 G
Falar de mim
         C
Sei que nem chegou a imaginar
        G                        D
Que eu pudesse te amar tanto assim

[Refrão]

G                 D/F#        Em
  Sempre fui um grande amigo seu
                C                 G
Só que não sei mais se assim vai ser
              D            C
Sempre te contei segredos meus
             D          G
Estou apaixonado por você
              D/F#       Em
Esse amor entrou no coração
                C              G
Agora diz o que é que a gente faz
            D            C
Pode dizer sim ou dizer não
             D           G
Ser só seu amigo não dá mais

G                 D/F#        Em
  Sempre fui um grande amigo seu
                C                 G
Só que não sei mais se assim vai ser
              D            C
Sempre te contei segredos meus
             D          G
Estou apaixonado por você
              D/F#       Em
Esse amor entrou no coração
                C              G
Agora diz o que é que a gente faz
            D            C
Pode dizer sim ou dizer não
             D           G
Ser só seu amigo não dá mais

( D4  G  D  Em )
( C  G  D  C )
( D  G  D  Em )
( C  G  D  C  D )

E|---5-----5-----5-----5-----5--------------|
B|-----8-----8-----8-----8-----8------------|
G|-------7-----7-----7-----7----------------|
D|-7----------------------------------------|
A|------------------------------------------|
E|------------------------------------------|

E|---7-----7-----7----5-----5---------------|
B|-----8-----8----------7-----7---7---------|
G|-7-----7-----7----7-----7-----7-----------|
D|------------------------------------------|
A|------------------------------------------|
E|------------------------------------------|

E|---2-----2-----2----3-----3---------------|
B|-----4-----4----------5-----5---5---------|
G|-3-----3-----3----5-----5-----5-----------|
D|------------------------------------------|
A|------------------------------------------|
E|------------------------------------------|

E|---7-----7-----7----2-----2---------------|
B|-----8-----8----------3-----3---3---------|
G|-7-----7-----7----2-----2-----2-----------|
D|------------------------------------------|
A|------------------------------------------|
E|------------------------------------------|

E|---3-----3-----3----2-----2---------------|
B|-----5-----5----------3-----3---3---------|
G|-5-----5-----5----2-----2-----2-----------|
D|------------------------------------------|
A|------------------------------------------|
E|------------------------------------------|

E|---7-----7-----7----5-----5---------------|
B|-----8-----8----------7-----7---7---------|
G|-7-----7-----7----7-----7-----7-----------|
D|------------------------------------------|
A|------------------------------------------|
E|------------------------------------------|

E|-12--12-12-12----3-----3------------------|
B|-12--12-12-12------5-----5---5------------|
G|-12--12-12-12--5-----5-----5--------------|
D|------------------------------------------|
A|------------------------------------------|
E|------------------------------------------|

E|---7-----7-----7-----10-------10----------|
B|-----8-----8------------10-------10----10-|
G|-7-----7-----7----11-------11-------11----|
D|------------------------------------------|
A|------------------------------------------|
E|------------------------------------------|

E|---8-----8--------2-----------------------|
B|-----8-----8---8--3-----------------------|
G|-9-----9-----9----2-----------------------|
D|------------------0-----------------------|
A|------------------------------------------|
E|------------------------------------------|
Composição de Victor Chaves
2.210.464 exibições
  • Simplificar cifra
    • ½ Tom
    • A
    • Bb
    • B
    • C
    • Db
    • D
    • Eb
    • E
    • F
    • F#
    • G
    • Ab
  • Adicionar à lista

    0 comentários

    Ver todos os comentários

    Conseguiu tocar?

    119 Tocaram 6 Ainda não

    Grave um vídeo tocando Amigo Apaixonado e nos envie!

    00:00 / 00:00
    Outros vídeos desta música
    Repetir Qualidade Automático
    Outros vídeos desta música
    00:00 / 00:00
    Automático
    Capítulos
    • Início
    • Acordes da introdução
    • Tocando a introdução
    • Ensinando o dedilhado da intro (parte 1)
    • Ensinando o dedilhado da intro (parte 2)
    • Ensinando o dedilhado da intro (parte 3)
    • Ensinando o dedilhado da intro (parte 4)
    • Ensinando o dedilhado da intro (parte 5)
    • Acordes da primeira parte
    • Tocando a primeira parte
    • Ensinando o ritmo da primeira parte
    • Acordes da segunda parte
    • Tocando a segunda parte
    • Ensinando o ritmo da segunda parte
    • Acordes do refrão
    • Tocando o refrão
    • Ensinando o ritmo do refrão
    • Acordes da preparação para o solo
    • Tocando a preparação para o solo
    • Acordes e ritmo da base do solo
    • Acordes e ritmo da terceira parte
    • Tocando a terceira parte
    • Tocando o último refrão
    • Ensinando o ritmo do último refrão
    • Acordes do dedilhado do último refrão
    • Tocando o dedilhado do último refrão
    • Ensinando o dedilhado do último refrão
    • Tocando o solo da música
    • Ensinando o solo (parte 1)
    • Ensinando o solo (parte 2)
    • Ensinando o solo (parte 3)
    • Encerramento
    • Extras

    Cifra Club Pro

    Aproveite o Cifra Club com benefícios exclusivos e sem anúncios
    Cifra Club Pro
    Aproveite o Cifra Club com benefícios exclusivos e sem anúncios
    OK